a b c d e f g h i j k l m n o p q r s t u v w x y z 0-9

Me Matan Limon

Patricio Rey Y Sus Redonditos De Ricota

G#
A
			
Intro:

guitarra:     
          SOL                          FA                              DO
E|----3------3-------3------3------|----3------3-------3------3----|---3-----3------3------3----|
B|----3------3-------3------3----/-|----1------1-------1------1----|---1-----1------1------1----|
G|----0-----0------0-----0---/-|----2-----2------2-----2---|---0----0-----0-----0---|
D|----0------0-------0------0----/-|----3------3-------3------3----|---2-----2------2------2----|
A|----2------2-------2------2----/-|-------------------------------|---3-----3------3------3----|
E|----3------3-------3------3------|-------------------------------|----------------------------|
 
BAJO:  sol                              FA                              DO                    
G|---------------------------------|-------------------------------|----------------------------|
D|-----------------------------|---------------------------|------------------------|
A|---------------------------------|-------------------------------|3-3---33---3-3-----3-3---3-0|
E|3-3---1-33---3-3-----1--33---0---|-1-1--0-1-1---1-1----0-1-1-----|-----3-----------3----------|

y sigue asi:

guitarra:     
          SOL                         
E|----3------3-------3------3------|
B|----3------3-------3------3----/-|
G|----0-----0------0-----0---/-|
D|----0------0-------0------0----/-|
A|----2------2-------2------2----/-|
E|----3------3-------3------3------|

BAJO:    Sol                              
G|---------------------------------|
D|-----------------------------|
A|---------------------------------|
E|3-3---1-33---3-3-----1--33---0---|


|-----------------------------------------------------------------------|
|= silencio cuando el bajo hace silencio , guitarra toca y viceversa |
|-----------------------------------------------------------------------|


VERSO 1:

SOL                   FA 
Ni bien amainó, la tormenta olvidó
      DO                SOL
las promesas hechas otra vez
SOL                   FA 
Me matan Limón! Hijoeputas Limón!
        DO                   SOl
Por los techos viene el bloque otra vez.


guitarra:     
          SOL                          FA                              DO
E|----3------3-------3------3--3---|----3------3-------3------3----|---3-----3------3------3----|
B|----3------3-------3------3--3-/-|----1------1-------1------1----|---1-----1------1------1----|
G|----0-----0------0-----0--0-/-|----2-----2------2-----2---|---0----0-----0-----0---|
D|----0------0-------0------0--0-/-|----3------3-------3------3----|---2-----2------2------2----|
A|----2------2-------2------2--2-/-|-------------------------------|---3-----3------3------3----|
E|----3------3-------3------3--3---|-------------------------------|----------------------------|
 
BAJO:  sol                              FA                              DO                    
G|---------------------------------|-------------------------------|----------------------------|
D|-----------------------------|---------------------------|------------------------|
A|---------------------------------|-------------------------------|3-3---33---3-3-----3-3---3-0|
E|3-3---1-33---3-3-----1--33---0---|-1-1--0-1-1---1-1----0-1-1-----|-----3-----------3----------|

y sigue asi:

guitarra:     
          SOL                         
E|----3------3-------3------3------|
B|----3------3-------3------3----/-|
G|----0-----0------0-----0---/-| X 2 todo
D|----0------0-------0------0----/-|
A|----2------2-------2------2----/-|
E|----3------3-------3------3------|


ESTRIBILLO 1:

DO        SOl 
  Oh... otra vez
DO       SOl 
 Oh... otra vez


BAJO:
           DO                          Sol                                           
G|----------------------------|---------------------------------|
D|------------------------|-----------------------------|
A|3-3---33---3-3-----3-3---3-0|---------------------------------| X2
E|----3------------3----------|3-3---1-33---3-3-----1--33---0---|


GUITARRA..    
    Doen negras       SOLen negras      DOen negras       SOL
E|-3---3---3---3---||--3----3----3----3-||-3---3---3---3---||-3---3---3---3--3---|
B|-1---1---1---1---||--3----3----3----3-||-1---1---1---1---||-3---3---3---3--3---|
G|-0--0--0--0--||--0---0---0---0-||-0--0--0--0--||-0--0--0--0--0---|X1
D|-2---2---2---2---||--0----0----0----0-||-2---2---2---2---||-0---0---0---0--0---|
A|-3---3---3---3---||--2----2----2----2-||-3---3---3---3---||-2---2---2---2--2---|
E|-----------------||--3----3----3----3-||-----------------||-3---3---3---3--3---|


VERSO 2;

Sol
Pasan las dos delatandolo
FA
apenas las dos delatandolo a las dos
 DO*                          SOL
de la tarde y zumba feo algún moscón.
SOL
Voy sangrando Limón padrecito de
FA
me la dieron Limón nuestros pobres que
DO                              SOL
sangran por las tejas como vos Limón.


guitarra:     
          SOL                          FA                              DO
E|----3------3-------3------3--3---|----3------3-------3------3----|---3-----3------3------3----|
B|----3------3-------3------3--3-/-|----1------1-------1------1----|---1-----1------1------1----|
G|----0-----0------0-----0--0-/-|----2-----2------2-----2---|---0----0-----0-----0---|
D|----0------0-------0------0--0-/-|----3------3-------3------3----|---2-----2------2------2----|
A|----2------2-------2------2--2-/-|-------------------------------|---3-----3------3------3----|
E|----3------3-------3------3--3---|-------------------------------|----------------------------|
 
BAJO: 
     sol                             FA                        DO * cambia en la primer vuelta 
G|---------------------------------|-------------------------------|----------------------------|
D|-----------------------------|---------------------------|------------------3-3-----|
A|---------------------------------|-------------------------------|3-3---33---3-3--6-6---------|
E|3-3---1-33---3-3-----1--33---0---|-1-1--0-1-1---1-1----0-1-1-----|-----3----------------------|

y sigue asi:

guitarra:     
          SOL                         
E|----3------3-------3------3------|
B|----3------3-------3------3----/-|
G|----0-----0------0-----0---/-| X 2 
D|----0------0-------0------0----/-|
A|----2------2-------2------2----/-|
E|----3------3-------3------3------|



ESTRIBILLO 2:

Guitarra:

DO        SOl 
  Oh... otra vez
DO       SOl 
 Oh... otra vez


BAJO:
           DO                          Sol                       DO*             SOL        
G|----------------------------|-----------------------|-----------------------|-----------------|
D|------------------------|-------------------|------------------3-3|------ -------|
A|3-3---33---3-3-----3-3---3-0|-----------------------|3-3---33---3-3--6-6----|-----------------|
E|----3------------3----------|3-3--1-33--3-3-1--33--0|----3------------------|3-3--1-33--3-3-1/|


SOLO DE SAXO:
          G#x2                      LA                     do si  sib         LA             
G|----------------------------|--|---------------------------|---|---|---|----------------------|
D|------------------------|x2|-----------------------|---|---|---|-------------------|
A|------------------------4-2-|--|-----------------------5-3-|3|2|1|----------------------|
E|4-4--2-44--4-4---2-4-4------|--|5-5--3-55--5-5--3-5-5------|---|---|---|5-5--3-55--5-5--3-55--|
   do     re     MI
G|------|-----|-------------------------|
D|------|-----|-------------------------|
A|-3-/|-5-|-7-7-7--7-7-7--/-3-3-3-|
E|------|-----|-------------------------|

GUITARRA 1:
 
        G#X2              Ax2               do si  sib     AX2          DO RE   MI
E|--4---4----4---4--4---|--|-5---5----5---5-5-|--|---|---|---|-5---5----5---5-5-|---|---|-------|
B|--4---4----4---4--4-/-|--|-5---5----5---5-5-|--|---|---|---|-5---5----5---5-5-|---|---|-------|
G|--5--5---5--5--5-/-|--|-6--6---6--6-6-|--|5|4|3|-6--6---6--6-6-|5|7|999999-|
D|--6---6----6---6--6-/-|x2|-7---7----7---7-7-|x2|5|4|3|-7---7----7---7-7-|5|7|999999-|
A|--6---6----6---6--6-/-|--|-7---7----7---7-7-|--|3|2|1|-7---7----7---7-7-|3|5|777777-|
E|--4---4----4---4--4---|--|-5---5----5---5-5-|--|---|---|---|-5---5----5---5-5-|---|---|-------|
 

VERSO 3;

SOL                    FA
Nunca pudo llorar, ni soñar al dormir
DO                         SOL
pero sabe que las dos es tarde ya
SOL
Todo el bloque Limón nuestra gente no
FA
Baila y canta mi dios no quiere escuchar
DO*                            SOL
cumbias y merengues crueles, otra vez.


ESTRIBILLO FINAL:

Oh... otravez
Oh... otravez
Oh... otravez


GUITARRA:  [DO-SOL]X3 

BAJO: [DO-SOL-DO-SOL-DO*-SOL]


FINAL

  BAJO:       DO*         SOL
G|-----------------------|---|
D|-------------------3-3-|---|
A|-3-3----3-3---6-6------|---|
E|-----3-----------------|3|

GUITARRA:  [DO       FA   SOL]

fin

Fuente original ATAME [www.atame.org]
Colaborador original: GUILLE [elguille665@hotmail.com]

Fuente: tusacordes.com