a b c d e f g h i j k l m n o p q r s t u v w x y z 0-9

Me Matan Limon

Patricio Rey Y Sus Redonditos De Ricota

			
Intro
G|-------------------------------------------------------------------------|
D|-------------------------------------------------------------------------|
A|-------------------------------------33-1-33--33-1-33--------------------|
E|-33-1-33--33-1-33--11-0-11--11-0-11--------------------33-1-33--33-1-33--|

Verso
G|-------------------------------------------------------------------------|x2
D|-------------------------------------------------------------------------|
A|-------------------------------------33-1-33--33-1-33--------------------|
E|-33-1-33--33-1-33--11-0-11--11-0-11--------------------33-1-33--33-1-33--|

Coro
G|----------------------------------------|x2
D|----------------------------------------|
A|-33-1-33--33-1-33-3-1-------------------|
E|----------------------33-1-33--33-1-33--|

Verso
G|-------------------------------------------------------------------------|x2
D|-------------------------------------------------------------------------|
A|-------------------------------------33-1-33--33-1-33--------------------|
E|-33-1-33--33-1-33--11-0-11--11-0-11--------------------33-1-33--33-1-33--|

Coro
G|----------------------------------------|x2
D|----------------------------------------|
A|-33-1-33--33-1-33-3-1-------------------|
E|----------------------33-1-33--33-1-33--|

Solo
G|----------------------------------------------------------------------------------|
D|----------------------------------------------------------3-1-----------------3-1-|
A|-----------------3-1-----------------3-1--33-1-33-33-1-33-----33-1-33-33-1-33-----|
E|-33-1-33-33-1-33-----33-1-33-33-1-33----------------------------------------------|

 |------------------------------------------------|
 |------------------------------------------------|
 |----3--5----------------------3--555555555555---|
 |-3--------33-1-33-33-1-33--3--------------------|

Verso
G|-------------------------------------------------------------------------|x2
D|-------------------------------------------------------------------------|
A|-------------------------------------33-1-33--33-1-33--------------------|
E|-33-1-33--33-1-33--11-0-11--11-0-11--------------------33-1-33--33-1-33--|

Coro
G|----------------------------------------|x4
D|----------------------------------------|
A|-33-1-33--33-1-33-3-1-------------------|
E|----------------------33-1-33--33-1-33--|

Escuchá la canción para saber el ritmo

Fuente original ATAME [www.atame.org]
Colaborador original: Sebastián Vidondo [rojoamargodelsiglo@yahoo.com.ar]

Fuente: tusacordes.com