a b c d e f g h i j k l m n o p q r s t u v w x y z 0-9

Masacre En El Puticlub

Patricio Rey Y Sus Redonditos De Ricota

			
Skay sos lo mas!!!!!!!!!!!!!!!!!!!!!!
AGUANTE LA 8
V= VIBRATO

-7-7-7-7--6-6-6-6--5-5-5-5-----5----12/2----------
-6-6-6-6--5-5-5-5--4-4-4-4-----4------------------
-7-7-7-7--6-6-6-6--5-5-5-5-----5------------------
--------------------------------------------------
--------------------------------------------------
--------------------------------------------------
                                                 ___
--------------------------------------------------  |R
--------------------------------------------------  |E M
----3------------3------------3-------------------  |P U
------2--4----------2V---------2---4------------  |I C
----------------------------------------3-3-3--3v |T H
--2-----------2------------2----------------------  |E O
                                                 ¯¯¯

DESPUES HACE ASI:                               ___
-------------------------------------------------- |
-------------------------------------------------- |R
-----------------4--2----------------------------- |
------------1--4------4V------------------------ |E
-2-2-2-2-2---------------------------------------- |
-------------------------------------------------- |P
                                                   |   X
-------------------------------------------------- |I
-------------------------------------------------- |   2
-----------------6--4V-----4--3VV----------- |T
------------3--6----------6----------------------- |
-4-4-4-4-4---------------------------------------- |E
-------------------------------------------------- |
                                               
TEQUE TEQUQ, TOKA, TOKA, ESTA HINCHADA ESTA RE LOKA, 
SOMOS TODOS REDONDITOS, REDONDITOS DE RICOTA !!!!!!!!!!!!!!!!!!!!!!!!!!!!

Fuente original ATAME [www.atame.org]
Colaborador original: Julián [skaybeilinson_1@hotmail.com]

Fuente: tusacordes.com