a b c d e f g h i j k l m n o p q r s t u v w x y z 0-9

Masacre En El Puticlub

Patricio Rey Y Sus Redonditos De Ricota

			
La presente es una corrección de la tablatura enviada por Maximiliano Pablo Birarelli,
a la que le faltaba un punteo y está corregida la intrducción.

Introdución
   F#7    F7     E7
e---9------8------7----
b--11-----10------9----
g---9------8------7----
d--11-----10------9----
a---9------8------7----
E----------------------

 riff x 4  gracias a Maximiliano Pablo Birarelli
e------------------------------------
b------------------------------------
g---3--------3--------3--------------
d-----2-4------2-3------2-4----------
a---------------------------3-3-3--3-
E-2--------2--------2----------------

F#7                            F7
por una pipa del nueve arranco
F#7                          F7
la gran masacre del puticlub
F#7                              F7
con pastillita en tren gladiador
F#7                            
puso un huevo y la cosa exploto

E5
Rock fuerte en el puticlub
cambio la suerte del puticlub

Riff B/C# x2
e------------------------------------------------------------------
b------------------------------------------------------------------
g-----------------4----2---------------------------6----4---4--6---
d----------1---4----------4-----------------3---6---------6--------
a--2--2-2---------------------------4--4-4-------------------------
E------------------------------------------------------------------

E5
Rock fuerte en el puticlub
cambio la suerte del puticlub

Repite introducion

F#7                         F7
Buena faena de tajo y talon
F#7                                F7
ruedan los dientes del negro canon
F#7                            F7
su mala leche no siente dolor
F#7                           
y arroja entranas en todo el salon

E5
Rock fuerte en el puticlub
cambio la suerte del puticlub

Riff B/C# x2

E5
Rock fuerte en el puticlub
cambio la suerte del puticlub

Repite intodución

F#7                          F7
los impacientes del puticlub
F#7                          F7
perdian el tiempo y la salud
F#7                            F7
el gas coreano depronto arribo
F#7                         
llego del norte y todo acabo

E5
Rock fuerte en el puticlub
ja-ja que fuerte lo del puticlub

Riff B/C# x2

E5
Rock fuerte en el puticlub
ja-ja que fuerte lo del puticlub

Repite Introducción


acordes   
          E a d g b e
F#7       2 4 2 3 2 2
F7        1 3 1 2 1 1
E5        x 7 9 9 x x
B5        x 2 4 4 x x
C#5       x 4 6 6 x x

Fuente original ATAME [www.atame.org]
Colaborador original: Gonzalo Carmelé [acgg@ciudad.com.ar]

Fuente: tusacordes.com