a b c d e f g h i j k l m n o p q r s t u v w x y z 0-9

Mariposa Pontiac

Patricio Rey Y Sus Redonditos De Ricota

A
E
			
espero entiendan el tab.... escuchen el tema bien

intro:

Guitarra1:                                 __________x2_________
           LA5 fraseo                   |                     |
e|-----------------------------------|--||-----|----|-----|------||
B|-----------------------------------|--||-----|----|-----|------||
G|--2------2--2-2--------------------|x4||-----|----|-----|------||
D|--2--4---2--2-2-/-4---4-4-4---4----|--||-LA5-|LA5-|-DO--|-RE---||
A|--0--0---0--0-0---0---0-0-0---0----|--||-----|----|-----|------||
E|----------------------|_|_|--------|--||-----|----|-----|------||.

                                           ______X3_______
BAJO:                                     |     LA        |     LA         DO
G|------------------------------------|--|-----------------|-------------|---------------|-------
D|------------------------------------|x4|-----------------|-------------|---------------|-------
A|------------------------------------|--|-----4---7---5-4-|-----4--7--5-|3-3-3-3----3-|-------
E|-----------------------------3-4-5|--|-5-5---5---5-----|-5-5--5--5---|----------5----|------- 
    RE               LA        LA               Do               RE            LA     LA
G|---------------|-2-2----------2-2-----|-----|---------------|--------------|2-2-------2-2----|-
D|----4-5-7-5-4--|-----4-2----------4-2-|-----|---------------|----4-5-7-5-4-|---4-2--------4-2|-
A|-5-----------|----------------------|-----|3-3-3-3----3-|-5----------|-----------------|-
E|---------------|---------0-3----------|-3-5-|----------5----|--------------|-------0-3-------|-
antes del verso..
---------|
---------|
---------|
-3-4-5-|


guitarra2:         LA X3      LA                   RE  
e|----------|--|----------|---------------|-----|------|
B|----------|--|----------|---------------|-----|------|      despues tocar solamete notas
G|----------|--|--7--5----|--7--5---------|--DO-|--7-|X1       [la5-la5-do5-re5] X1
D|-silencio-|x4|--7--5--7-|--7--5--7--5h7-|-----|--7-|        y enganchar con el verso
A|----------|--|--------7-|--------7------|-----|------|
E|----------|--|----------|---------------|-----|------|

parte de SAXO empieza desde el DO     ***arreglo para guitarra****
      Do         RE            LA     LA            Do         RE                 LA     LA
e|---------------------------------------------|-----------------------------------------------
B|---------------------------------5-7---------|---7-10--10-10--7-7--5-5-------------------
G|-----5----4-7-5--------4-6~------5-4-----|-9---------------------------7-7-5-7---------
D|-5-7------7-------7--7-----------------7-7-|-----------------------------------------------
A|---------------------------------------------|-----------------------------------------------
E|---------------------------------------------|-----------------------------------------------
antes del verso
----------------------5-||
-----5-4----7-6---7-5-----||
-5-4----5-------7---------||
--------------------------||
--------------------------||
--------------------------||


***********
 VERSO 1: 
***********
          
BAJO:  ________________X3_______________
      |     LA              LA          |      LA         LA
   G||-----------------|-----------------|--------------|-------------|-
   D||-----------------|-----------------|--------------|-------------|- y engancha  INTERMEDIO
   A||-----4---7---5-4-|-----4---7-------|-----4--7--5-4|----4---7--5-|-
   E||-5-5---5---5-----|-5-5---5---3-4-5-|-5-5--5--5----|-5-5--5--5---|-
 
GUITARRA: A 

e|------------------------------------------|--|-----|
B|-------------------------------------3----|--|-----|
G|-2--2---------------2-2---------2-2--2--0-|X3|-----|
D|-2--2--4---2-2--4---2-2--2---4--2-2-----0-|--|--LA5|
A|-0--0--0---0-0--0---0-0--0---0--0-0-------|--|-----|
E|------------------------------------------|--|-----|


***Sobre LA****

"Ven a mi casa suburbana,
me obseciona tu prisión."

Ven a mi casa suburbana,
me obsesiona tu prisióooon.


INTERMEDIO:  

repite la parte de SAXO..

parte de SAXO empieza desde el DO    
    Do         RE            LA     LA            Do         RE                 LA     LA
e|---------------------------------------------|-----------------------------------------------
B|---------------------------------5-7---------|---7-10--10-10--7-7--5-5-------------------
G|-----5----4-7-5--------4-6~------5-4-----|-9---------------------------7-7-5-7---------
D|-5-7------7-------7--7-----------------7-7-|-----------------------------------------------
A|---------------------------------------------|-----------------------------------------------
E|---------------------------------------------|-----------------------------------------------
antes del verso
----------------------5-||
-----5-4----7-6---7-5-----||
-5-4----5-------7---------||
--------------------------||
--------------------------||
--------------------------||

EL BAJO HACE :
      DO              RE               LA        LA               Do               RE           
G|---------------|---------------|-2-2----------2-2-----|-----|---------------|--------------|
D|---------------|----4-5-7-5-4--|-----4-2----------4-2-|-----|---------------|----4-5-7-5-4-|
A|3-3-3-3----3-|-5-----------|----------------------|-----|3-3-3-3----3-|-5----------|
E|-----------5---|---------------|---------0-3----------|-3-5-|----------5----|--------------|
     LA   LA         antes del verso..
|2-2-------2-2----||---------|
|---4-2--------4-2||---------|
|-----------------||---------|
|-------0-3-------||-3-4-5-|


Guitarras.hacen las notas [DO_RE_LA_LA ] x2  como en intro       


ESTRIBILLO:

BAJO:
    SOL    RE       LA        LA
G|-------|------|-2-2---------2-2------|----||
D|-------|------|-----4-2--------4-2---|----|| X4
A|-------|-5--|----------------------|----||
E|--3--|------|---------0-3--------3-|3-4-||

GUITARRA:
    SOL     RE     
|--3--|--2-|---------|
|--3--|--3-|---------|
|--0--|--2-|---LA7---|X4
|--0--|--0-|---------|
|--2--|------|---------|
|--3--|------|---------|

  Sol          Re                        La7
¡Ay! Mariposa pontiac, ¿qué va a ser de mí?...
Sol                RE                    LA7
Sin tus caricias, nena, ¿qué va a ser de mí?...

 Sol          Re                        La7
¡Ay! Mariposa pontiac, ¿qué va a ser de mí?...
Sol                RE                    LA7
Sin tus caricias, nena, ¿qué va a ser de mí?...



SOLO DE GUITARRA:

BAJO durante el solo                                                               _____X2___
    FA#               RE1               RE 2                             LA     | sol-re-la|
G|--------------|----------------|------|------------|----|-----|----|-----|-------|----|---|---|
D|--------------|--------4-4-7-7-|------|------------|-FA#|RE1|-FA#|RE2|-------|----|---|---|
A|------------4-|5-5-5---------|-FA#--|5-55------|----|-----|----|-----|-------|----|5|---|
E|-2-222--5---|----------------|------|------55-44-|----|-----|----|-----|5555555|-3|---|5|

 GUITARRA:
  FA#                         RE                    FA#                RE
e|-----------------------|-------------|-12--------|------12h14b-|-12-9----------------|-------
B|-10h12--12p10----------|-------------|-12-10-----|-10------------|------12p10----12-10-|-------
G|--------------11-11~-|--------9----|-------11b-|----11---------|------------11-------|11---
D|-----------------------|x-x-9h11--11-|-----------|---------------|---------------------|-------
A|-----------------------|x-x----------|-----------|---------------|---------------------|-------
E|-----------------------|-------------|-----------|---------------|---------------------|-------
       FA#                RE             FA#              RE                    LA         SOL
e|------------------|------------|--------------|--------------------------|-----------|--3----
B|------9h11--12-12-|-10--10-~-/-|--------------|--------------2-2--2/-5~|-7---------|--3----
G|------9h11--11-11-|---11-------|--------------|--------------2-2-----5-|---5h6-----|--0----
D|-9h11-------------|------------|-----7-9br--7-|-9-7-9br-7----------------|-------7-|--0----
A|------------------|------------|-7h9----------|-----------9--------------|-----------|--2----
E|------------------|------------|--------------|--------------------------|-----------|--3----
                                  sobre
   RE    LA      riff 1        SOL - RE -  LA
e|-2-|------|--------------|--------------|-----5-/----|
B|-3-|------|-5----5-5-----|--7p5---------|-7---5-/----|
G|-2-|-2--|-5----5-5-----|--7p5---------|-7------------|
D|-0-|-2--|----7-----7-|------7-5-7-|--------------|
A|-----|-0--|--------------|--------------|--------------|
E|-----|------|--------------|--------------|--------------|



***********
 VERSO 2:   igual al 1
***********
          
BAJO:  ________________X3_______________
      |     LA              LA          |      LA         LA
   G||-----------------|-----------------|--------------|-------------|-
   D||-----------------|-----------------|--------------|-------------|- y engancha  INTERMEDIO
   A||-----4---7---5-4-|-----4---7-------|-----4--7--5-4|----4---7--5-|-
   E||-5-5---5---5-----|-5-5---5---3-4-5-|-5-5--5--5----|-5-5--5--5---|-
 

***Sobre LA****

"Ven a mi casa suburbana,
me obseciona tu prisión."

Ven a mi casa suburbana,
me obsesiona tu prisióooon.


**** REPITE INTERMEDIO: ***** 


ESTRIBILLO 2:

BAJO:
    SOL    RE       LA        LA                   SOL      RE     LA         LA     PRE-SOLO MI
G|-------|------|-2-2---------2-2------|----||---|-------|-----|-2-2---------2-2-------|--------|
D|-------|------|-----4-2--------4-2---|----||-X3|-------|-----|-----4-2--------4-2----|7-------|
A|-------|-5--|----------------------|----||---|-------|-5-|--------------------3-0|-7777777|
E|--3--|------|---------0-3--------3-|3-4-||---|--3--|-----|---------0-3-----------|--------|

GUITARRA:
    SOL     RE                    SOl    RE            PRE SOLO DE PIANO E
e|--3--|--2-|---------|   |--3--|--2-|---------|-----------------|
B|--3--|--3-|---------|   |--3--|--3-|---------|-----------------|
G|--0--|--2-|---LA7---|X3 |--0--|--2-|---LA7---|--9-9-9-9-9-9-9--|
D|--0--|--0-|---------|   |--0--|--0-|---------|--9-9-9-9-9-9-9--|
A|--2--|------|---------|   |--2--|------|---------|--7-7-7-7-7-7-7--|
E|--3--|------|---------|   |--3--|------|---------|-----------------|

  Sol          Re                        La7
¡Ay! Mariposa pontiac, ¿qué va a ser de mí?...
Sol                RE                    LA7
Sin tus caricias, nena, ¿qué va a ser de mí?...

 Sol          Re                        La7
¡Ay! Mariposa pontiac, ¿qué va a ser de mí?...
Sol                RE                    LA7       PRE_SOLO de PIANO
Sin tus caricias, nena, ¿qué va a ser de mí?...


EL PRE_SOLO SIGUE ASI:

despues del MI....

BAJO:  Si7              FA#
G|------------------|---------------|
D|---------4-4-6-4--|---------------|
A|-----5-6----------|---------------| y engancha con el solo de piano
E|-7-7--------------|2-2-2-2--2-2-2-|
 
GUITARRA: (hace notas [si7-FA#])


SOLO DE PIANO:

BAJO: durante el solo
   Si7                 MI7                   FA#
G|------------------|-------44-6-4--|--|--------------|
D|---------4-4-6-4--|---5-6---------|X3|--------------|
A|-----5-6----------|7-7------------|--|-9-9--99--|
E|-7-7--------------|---------------|--|--------------|

GUITARRA: [Si7-MI7] X3  y             FA# *
                                e|-------------------|
                                b|-------------------|
                                g|-------------------|
                                d|-11-11---1111--|
                                a|-9--(9-)---9-(9-)--|
                                e|-------------------|

VERSO 3:
 
BAJO: 
   Si7                 MI7                   FA#
G|------------------|-------44-6-4--|--|---------------|
D|---------4-4-6-4--|---5-6---------|X3|---------------|
A|-----5-6----------|7-7------------|--|-9-9---99--|
E|-7-7--------------|---------------|--|---------------|

GUITARRA: [Si7-MI7] X3  y    [FA#*]
                               

          Si7                    Mi7
Me vine a ver un recital de rocanrol del país, 
         Si7                   Mi7
y miren toda la cacona que juntaron aquí.
           Si7                   Mi7                   Fa#
Será que pueden calentarnos el pavito aún más, para gastarlo!


ESTRIBILLO 3:

BAJO: 
   Si7                 MI7                    Si7                    MI7       ¡¡       FA#
G|----------------|--|--------4-4-6-4-|--|----------------|--|--------4-4-6-4-|--|--------------|
D|---------4-4-6-4|--|----5-6---------|--|---------4-4-6-4|--|----5-6---------|--|--------------|
A|-----5-6--------|X2|-7-7------------|X2|-----5-6--------|X2|-7-7------------|x1|-9-9---99-| 
E|-7-7------------|--|----------------|--|-7-7------------|--|----------------|--|--------------|

GUITARRA [Si7]X2  [MI7]X2   [Si7]X2  [MI7]X1  y [FA#*]


SI7
"Verte feliz no es nada,
MI7
es sólo un rocanrol del país.
Si7
Verte feliz no es nada, 
MI7                    FA#*
es todo lo que hacemos por ti.


VERSO 4 igual al 3

Tuve temprano entre mis manos mi boleto y oí
que en el ensayo ya chingaba nuestra onda y pensé:
Con la lechuza que circula, ya no se puede más, para gastarla!


ESTRIBILLO 4 igual al 3

SI7
"Verte feliz no es nada,
MI7
es sólo un rocanrol del país.
Si7
Verte feliz no es nada, 
MI7                    FA#*
es todo lo que hacemos por ti.



SOLO DE SAXO FINAL

BAJO:
   Si7                 MI7            SI*         SOL#   D0#       FA#         FINAl        SI...
G|----------------|-------44-6-4|--|----------|----|---------|----------|-----------------------|
D|---------4-4-6-4|---5-6-------|X2|----------|----|---------|----------|-----------------------|
A|-----5-6--------|7-7----------|--|----------|----|4--2---|----------|--66-77-88-9-5-----|
E|-7-7------------|-------------|--|-7-7--6-5-|4-|-------4-|2-2-4-/-|77---------------7777|

GUITARRA: [Si7-MI7] X2    [SI*=que bajo]  [SOl#] [DO#] [FA#]  Y FINAL

final guitarra

e|--------------------------------------------------------|
B|--------------------------------------------------------|
G|--------------------------------------------------------|
D|--------------------11---7-----999999999999999---x-|
A|-----6-6--7-7--8-8--(9-)---5-9-999999999999999---x-|
E|-7-7---------------------------7-777777777777777---x-|

Fuente original ATAME [www.atame.org]
Colaborador original: Guille [elguille665@hotmail.com]

Fuente: tusacordes.com