a b c d e f g h i j k l m n o p q r s t u v w x y z 0-9

Mariposa Pontiac

Patricio Rey Y Sus Redonditos De Ricota

			
Intro
G|------|x3 |----------|x4 |----------------------------|x2
D|------|   |----------|   |----------------44--77---44-|
A|------|   |----4---7-|   |-33-5--4-5--55--55---55---|
E|-44-5-|   |-555-555--|   |----------------------------|

Verso
G|---------|x8
D|---------|
A|---4---7-|
E|-55-555--|

Puente
G|------5-7-6-5--------------------|x2
D|-----------------------4---7---4-|
A|-33-5---------5555/--55-555-555--|
E|---------------------------------|

Coro
G|------------------------|x6
D|------------------------|
A|---5---4---7---4---7--|
E|-3---55-555-555-555-5-|

Solo de Guitarra
G|---------------------|x4 |---------|x2 |------------|x2
D|---------------44-55-|   |---------|   |------------|
A|------4-5--5-77------|   |---4---7-|   |----3-5-|
E|-5-5---------------|   |-55-555--|   |-5--------|

Verso
G|---------|x8
D|---------|
A|---4---7-|
E|-55-555--|

Puente
G|------5-7-6-5--------------------|x2
D|-----------------------4---7---4-|
A|-33-5---------5555/--55-555-555--|
E|---------------------------------|

Coro
G|------------------------|x6
D|------------------------|
A|---5---4---7---4---7--|
E|-3---55-555-555-555-5-|

Pre-Solo de Piano
G|----------|
D|----------|
A|---66--9--|
E|-77--77-7-|

Solo de Piano
G|-------------------|x3 |----------|
D|------------6---9--|   |----------|
A|---6---9--77-777-7-|   |----------|
E|-77-777-7----------|   |-7-7--7-7-|

Verso 2 Me vine a ver un recital...
G|-------------------|----------|x4
D|------------6---9--|----------|
A|---6---9--77-777-7-|----------|
E|-77-777-7----------|-7-7--7-7-|
 |    3   Veces      |

Final
G|-------------------|x3 |---------|-------------------------|
D|------------6---9--|   |---------|-------------------------|
A|---6---9--77-777-7-|   |-----7-|----666-777-888-9--7-9-|
E|-77-777-7----------|   |-77----|-777---------------------|

Escuchá la canción para saber el ritmo

Fuente original ATAME [www.atame.org]
Colaborador original: Sebastián Vidondo [rojoamargodelsiglo@yahoo.com.ar]

Fuente: tusacordes.com