a b c d e f g h i j k l m n o p q r s t u v w x y z 0-9

Maldicion! Va A Ser Un Dia Hermoso

Patricio Rey Y Sus Redonditos De Ricota

E
A
			
introduccion: E

  guitarra          Bajo     
A|-----2--|     A|--------|
E|-12/-0--|     E|-12/-0--|
                
Intro y estribillo

Skay beilinson: 
e|---------------------------|-------------------------------------|
B|-5-5~---5------------------|-5--5/8---8-8-8-8-8-8-8-8-8-8/-0-----|
G|-----------7-4-------------|----------9-9-9-9-9-9-9-9-9-9/-0-----| 
D|---------------7-5b------|-----------------------------------2-|
A|----------------------7b-|-----------------------------------2-|
E|---------------------------|-----------------------------------0-|

Bajo                           MI
G|---------------------------|-------------------------------------| 
D|---------------------------|-------------------------------------|
A|---------------------------|-7--7-7-7-7-7-7-7-7-7-7-7-7-7-7-7-7--|
E|---------------------------|-------------------------------------|

                               
 Skay beilinson: 
e|---------------------------|-------------------------------------|
B|-5-5~---5------------------|-5--5/8---8-8-8-8-8-8-8-8-8-8/-0-----|
G|-----------7-4-------------|----------9-9-9-9-9-9-9-9-9-9/-0-----| 
D|---------------7-5b------|-----------------------------------2-|
A|----------------------7b-|-----------------------------------2-|
E|---------------------------|-----------------------------------0-|

Bajo                           MI
G|---------------------------|-------------------------------------| 
D|---------------------------|-------------------------------------|
A|7-7-7-7-7-7-7-7-7-7-7-7-7-7|-7--7-7-7-7-7-7-7-7-7-7-7-7-7-7-7-7--|
E|---------------------------|-------------------------------------|       



1er Verso:
----------
MI
Se de alguien que ha declarado
contra su moscardón imaginario
LA
impecable testigo de caricias
MI riff
que se esfumaron cuando dejó la guardia
SIm
Pintan mal las cosas para el mi viejo
    LA   Riff en LA
pintan mal.
                      

GUITARRA:  
   Mi5    "Se de alguien que ha declarado"...     contra su moscardón imaginario..
e||---------------------------------------------------------------|--------------|--
B||---------------------------------------------------------------|--------------|--
G||---------------------------------------4^3^2^1-----------------|--0-----------|--
D||---------------------------------------------------------------|--2-----------|--
A||----2-2--2-2--2-2--2-2--2-2--2-2--2-2-----------2-2--2-2--2-2--|--2-----------|--
E||----0-0--0-0--0-0--0-0--0-0--0-0--0-0-----------0-0--0-0--0-0--|--0--2--3--4--|--
  PM::.................................           .............

Bajo                           MI                                     puente
G||---------------------------------------------------------------|--------------|-- 
D||---------------------------------------------------------------|--------------|--
A||7-7-7-7-7-7-7-7-7-7-7-7-7-7-7-7--7-7-7-7-7-7-7-7-7-7-7-7-7-7-7-|--------------|--
E||---------------------------------------------------------------|--0--2--3--4--|--      

guitarra : 
           La5    "impecable testigo de caricias"..  MI5  "que se esfumaron! ... "Pintan mal. 
e|------------------------------------------------|---------------------------|---------------|
B|------------------------------------------------|--5-5b---5--3-4^3---3-5~-|---------------|
G|------------------------------------------------|--------------------3------|------SIm------|
D|--2-2-------2-------------2-2-----2-2-2-------2-|---------------------------|---rasguear--|
A|--0-0-------0--0------0---0-0-----0-0-0-------0-|---------------------------|---------------|
E|-------3^4--------3^4----------3---------3^4----|---------------------------|---------------|

BAjo:                la                                mi                         si
G|------------------------------------------------|---------------------------|---------------|
D|-----------------4b----------------------4b-----|---------------------------|-----------6b--|
A|-------4-4--7-7------7---------4-4--7-7-------7-|-7--7-7-7-7-7-7-7-7-7-7-7-7|----6-6-9-9---9|
E|--5-5---------------------5-5-------------------|---------------------------|-7-7-----------|

guitarra:
                             A              riff en La
"las cosas para el mi viejo"     "Pintan mal "              uoh oh ...         
e|-----------------------|-------------|-------------------------||
B|-----------------------|-------------|---/-8--8---8b-/-------||
G|----------SIm----------|-------------|---/-9----9--------------||
D|-----------------------|--7-----7----|-------------------------||
A|-----------------------|--7-----7----|-----------------------2-||
E|-----------------------|--5-.---5-.--|-----------------------0-||

BAjo:        si                  la                                                        
G|-----------------------|-------------|-------------------------||
D|-----------------6b----|-------------|-------------------------||
A|-------6-6--9-9------9-|-------------|-------------------------||
E|--7-7------------------|--5-.---5-.--|-----5-.---------5-.---/-||


ESTRIBILLO: como intro... pero 1 vuelta sola.

                               
 Skay beilinson: 

"Maldición! va a ser un día hermoso."      Maldicioooooon,,,
e|---------------------------|-------------------------------------|
B|-5-5~---5------------------|-5--5/8---8-8-8-8-8-8-8-8-8-8/-0-----|
G|-----------7-4-------------|----------9-9-9-9-9-9-9-9-9-9/-0-----| X1
D|---------------7-5b------|-----------------------------------2-|
A|----------------------7b-|-----------------------------------2-|
E|---------------------------|-----------------------------------0-|

Bajo                           MI
G|---------------------------|-------------------------------------| 
D|---------------------------|-------------------------------------|
A|7-7-7-7-7-7-7-7-7-7-7-7-7-7|-7--7-7-7-7-7-7-7-7-7-7-7-7-7-7-7-7--| X1
E|---------------------------|-------------------------------------|   


2do VERSO ; (guitarra y bajo, iguales que en todos los versos).
-----------
MI
Se de alguien que obliga en su aventura

a pagar los platos rotos de la gira
LA
es el rufián arrepentido de los días
MI
del único grito que valía
SI
pintan mal...



REPITE ESTRIBILLO.


SOLO DE SAXO:  sobre notas [la5 - mi5 - la5 - mi5 - Si5 ]  LA5 y  Riff en LA
-------------
o sea :  guitarra..            
                                 __
     la             mi             ||             SI5       LA 5         RIFF
e|-----------|--|----------|--|--||-todo--|------------|----------|------------------||
B|-----------|--|----------|--|--||-esto--|------------|----------|-/-8--8---8b-/--||
G|-----------|X4|----------|X4|--||--X2---|------------|----------|-/-9----9---------||
D|-----------|--|----------|--|--||-------|------------|----------|------------------||
A|-7-7--9-7--|--|-2-2--4-2-|--|--||-------|--9-9--11-9-|--7----7--|------------------||
E|-5-5--5-5--|--|-0-0--0-0-|--|--||-------|--7-7--7--7-|--5-.--5-.|------------------||
                                 __||


BAjo:  durante el solo      
            LA                          MI                  Si                      La
G|--------|-------------------|--|-------------------|--|---------------------|--|-----|--|
D|--------|------------7b-----|X2|----------------2--|X2|---------------6b----|X2|-----|X2|
A|--------|----4-4-7-7-----7--|--|-----4-4--2-2------|--|------6-6--9-9----9--|--|-----|--|
E|0-2-3-4-|5-5--------------5-|--|-0-0-----------4---|--|--7-7----------------|--|5.-5.|--|


ESTRIBILLO: CAMBIA ESTA PARTE:.

Skay beilinson:                           estiradas de 1/4 
e|---------------------------|-------------------------------------|
B|-5-5~---5------------------|-5--5/8--8b8b8b8b8b8b----|
G|-----------7-4-------------|-------------------------------------| X1
D|---------------7-5b------|-----------------------------------2-|
A|----------------------7b-|-----------------------------------2-|
E|---------------------------|-----------------------------------0-|

Bajo                           MI
G|---------------------------|-------------------------------------| 
D|---------------------------|-------------------------------------|
A|7-7-7-7-7-7-7-7-7-7-7-7-7-7|-7--7-7-7-7-7-7-7-7-7-7-7-7-7-7-7-7--| X1
E|---------------------------|-------------------------------------|   



3er VERSO: igual
----------

MI
Se de alguien que enturbia sus sentidos

para tener lugar en la balanza
LA
de las brutales risotadas hemorragias
MI
de la pavada celestial en avalancha
SI                                
pintan mal las cosas para el mi viejo,
LA
pintan mal.



REPETIR ESTRIBILLO...


SOLO DE SAXO FINAL....
-----------------

BAjo:  durante el solo      
    LA                          MI                     SI            LA             
G|-------------------|--|-------------------|--|------------------|----------------|
D|------------7b-----|X2|----------------2--|X2|--------------6b--|------------7b--|
A|----4-4-7-7-----7--|--|-----4-4--2-2------|--|-----6-6--9-9----9|---4-4--7-7---7-|
E|5-5--------------5-|--|-0-0-----------4---|--|-7-7--------------|5-5-------------|

GUITARRA:

 Son las mismas notas que en el primer solo, pero termina asi...


[la5 - mi5 - la5 - mi5 - Si5 - LA5]  y...

 en MI .. hacer
e|-----------------------------------|----||
B|-----------------------------------|----||
G|-----------------------------------|----||
D|-----------------------------------|--2-||
A|-2---------------------------5-7-|--2-||
E|-0-0--4-4---5-5---6-6---7-7--------|--0-||

bajo
G|-----------------------------------|----||
D|-----------------------------------|----||
A|-----------------------------5-7-|--7-||
E|-0-0--4-4---5-5---6-6---7-7--------|----||   fin

SI                  LA              MIfinal
Maldicion va ser un dia como los demas....

Fuente original ATAME [www.atame.org]
Colaborador original: GUILLE [elguille665@hotmail.com]

Fuente: tusacordes.com