a b c d e f g h i j k l m n o p q r s t u v w x y z 0-9

Luzbelito Y Las Sirenas

Patricio Rey Y Sus Redonditos De Ricota

			
intro:

guitarra:   MI
e|--------------00-0----------00-0|
B|--------------00-0----------00-0|
G|------------------------------------|X4
D|------------------------------------|
A|------------------------------------|
E|------------------------------------|

BAJO :
G|------------------------------------|
D|------------------------------------|
A|-2--4-5--4-2------------------------|X4
E|-------------3----0--000--0--0------|


VERSO 1:

BAJO:
G|-----------------------------|------------------------------|
D|-----------------------------|------------------------------|
A|-7-0--555---5--0-3-------|-7-0--555---5---3-------|
E|-------------------------5-5-|------------------------3-5-|

Guitarra 1:
    mi    re     rem     Lam      mim   re        do    sol la5
e|--0-----2------1--------0----|--0-----2-----------0---------|
B|--0-----3------3--------1----|--0-----3-----------1---------|
G|--------2------2--------2----|--------2-----------0---------|
D|-----------------------------|--------------------2---5--7--|
A|-----------------------------|--------------------3---5--7--|
E|-----------------------------|------------------------3--5--|


   MIm       RE   
   Luzbelito sabe que 
REm                 LAm
su destino es de soledad
MIm               RE
ve también que los demás
         DO                     LA
se dan cuenta de la risa que le da.


ESTRIBILLO 1:

BAJO:
  RE  DO  SI LASOL si SOL LA         RE  DO  SI LASOL si SOL LA 
G|---------------------------------|-----------------------------|
D|---------------------------------|-----------------------------|
A|--5--3--2--------2---------------|--5--3---2-------2-----------|
E|------------5-3-----3-5--------|------------5--3-----3-5---|

guitarra:
  RE  DO  SI LASOL si SOL LA         RE  DO  SI LASOL si SOL LA5 
e|-------------------------55555-55|-----------------------------|
B|-------------------------55555-55|-----------------------------|
G|-----------------4---------------|------------------4----------|
D|--7---5--4-------4---------------|--7---5--4--------4------7-|
A|--5---3--2--7-5--2--5--7---------|--5---3--2--7--5--2--5---7-|
E|------------5-3-----3--5---------|------------5--3-----3---5-|



    RE    DO    SI   LAm    SOL     Si    SOL    LAm  LAm  
   Ay!   Ay!   Ay!   que     ri-    sa-    le-    da.

    RE    DO     SI   LAm   SOL     SI    SOL    LA5
   Ay!   Ay!   Ay!   que     ri-    sa-    le-    da.


PUENTE :

igual a riff de intro

guitarra:   MI
e|--------------00-0----------00-0|
B|--------------00-0----------00-0|
G|------------------------------------|X2
D|------------------------------------|
A|------------------------------------|
E|------------------------------------|

BAJO :
G|------------------------------------|
D|------------------------------------|
A|-2--4-5--4-2------------------------|X2
E|-------------3----0--000--0--0------|



2°VERSO: igual


   Un par de culos va a patear
de los que le juran más lealtad.
   Y llorará en su corazón
como un nazareno del Cuzco.



2°ESTRIBILLO; igual

  RE    DO    SI   LAm    SOL     Si    SOL    LAm  LAm  
   Ay!   Ay!   Ay!   que     ri-    sa-    le-    da.

    RE    DO     SI   LAm   SOL     SI    SOL    LA5
   Ay!   Ay!   Ay!   que     ri-    sa-    le-    da.


SOLO DE GUITARRA:

BAJO: 
        mi       la  si    do   re       si
G|----------------------------------|------------------|
D|----------------------------------|------------------| y engancha con el verso
A|-------------------2--3--5--|------------------|
E|-000--0--000---5----------------|/-7-7-7-7-7-7-7-/-|


Guitarra 2 [MI- la - si  -  do -  re  -  si]  como bajo
**********

SOLO: guitarra escucharlo bien del cd... para el ritmo
*****
*  con WHA WHA                                         
e|-12-----------------|-------------|----------------------------------|-------------.--.--------
B|-12--xx-14-12~-/--|-------------|------------14--------------12/-|------77-99--8-10--11b-10
G|-12--xx-14-12~-/--|-------------|-15b-14-12--14-12-----------12/-|---9--77-99--------------
D|--------------------|-------12----|------------------12-14b/-------|-7-9---------------------
A|--------------------|-12-14----14-|----------------------------------|-------------------------
E|--------------------|-------------|----------------------------------|-------------------------

-------------|-17-17-17-17----------------------------------------------------------12/-|----12--
-------------|-17-17-17-17--14-14h12-14~--------------12-------------------12-------12/-|-15b----
12b--9-9~/-|--------------14-14h12-14~-14br-12---14-12-------------------12-------12/-|--------
-------------|-----------------------------------14------14---------12--------14~-----|--------
-------------|------------------------------------------------12-14-----14--------------|--------
-------------|--------------------------------------------------------------------------|--------

de 1 semitono
---12----12----12-|-------------------------------------------------------17/18--18b-18b-18b-|
15b---15b---15b---|-15-12-14--------------------------12-15-12~~---15-15---------------------|
------------------|---------12--12------12-14-14br-12------------------------------------------|
------------------|---------------14-14------------12------------------------------------------|
------------------|----------------------------------------------------------------------------|
------------------|----------------------------------------------------------------------------|


VERSO 3 igual

   La vida sin problemas es
matar el tiempo a lo bobo.
   Si un Dios bobeta ¡Bim.bum.bam!
toca un rocanrol lacrimógeno.


ESTRIBILLO 3 igual

   Ay!   Ay!   Ay!   esa lágrima.
   Ay!   Ay!   Ay!   que risa le da.


 REPITE PUENTE :

igual a riff de intro

guitarra:   MI
e|--------------00-0----------00-0|
B|--------------00-0----------00-0|
G|------------------------------------|X2
D|------------------------------------|
A|------------------------------------|
E|------------------------------------|

BAJO :
G|------------------------------------|
D|------------------------------------|
A|-2--4-5--4-2------------------------|X2
E|-------------3----0--000--0--0------|



VERSO 4 igual

   Estos ojos... de quién son?
de quién son mis deseos de hoy?
   Y este insomio de quién es?
Luzbelito pregunta una y otra vez...

ESTRIBILLO 4 Igual

   Ay!   Ay!   Ay!   mis deseos de hoy... 
   Ay!   Ay!   Ay!   mis deseos de hoy...



 REPITE PUENTE :

igual a riff de intro

guitarra:   MI
e|--------------00-0----------00-0|
B|--------------00-0----------00-0|
G|------------------------------------|X10 veces
D|------------------------------------|
A|------------------------------------|
E|------------------------------------|

BAJO :
G|------------------------------------|
D|------------------------------------|
A|-2--4-5--4-2------------------------|X10 veces
E|-------------3----0--000--0--0------|


fin con fade out.....

Fuente original ATAME [www.atame.org]
Colaborador original: Guille [elguille665@hotmail.com]

Fuente: tusacordes.com