a b c d e f g h i j k l m n o p q r s t u v w x y z 0-9

Las Increibles Andanzas Del Capitan Buscapina

Patricio Rey Y Sus Redonditos De Ricota

			
Intro.
G|------|--------------|--------------------|
D|------|--------------|--------------------|x6
A|------|--4----4----2-|-4-----4-----5---5--|
E|------|----4----4----|----4------4---4----|

Verso 1.
G|--------------|--------------------|--|-------------|----------------|-----------|------------|
D|--------------|--------------------|X2|-------------|----------------|-----------|------------|
A|--4----4----2-|-4-----4-----5---5--|--|--7----7-----|-7----7---8---8-|-7---7-----|-7---7--7-7/5
E|----4----4----|----4------4---4----|--|-----7---7-5-|----7---7---7---|---7---7-5-|---7---7----|

Puente.
G|--------------|--------------------|
D|--------------|--------------------|x2
A|--4----4----2-|-4-----4-----5---5--|
E|----4----4----|----4------4---4----|

Estribillo 1.
G|-------------|-------------||
D|-------------|-------------||
A|-------------|-------------||
E|--3-3-3--0-|--3-3-3--0-||


Verso 2 como verso 1

Puente.

Estribillo 2 como estribillo 1

Inter.                                                                                     Silen
G|--------------|----------------|-----------------|---------------|-------------|---------|---|
D|--------------|----------------|-----------------|---------------|-------------|---------|-#-|
A|--4----4----2-|-4-----4--------|-----------------|---------------|0-0-0-0-0-0-0|0-0-0-0|---|
E|----4----4----|----4-----4---|-0-0-0-0-0-0-0-0-|-2-2-2-2-2-2-2-|-------------|---------|---|

Verso 3 como verso 1

Puente.

Estribillo 3 como estribillo 1

Inter.

Solo de guitarra. Fin.
G||--------------|--------------------|
D||--------------|--------------------|x4
A||--4----4----2-|-4-----4-----5---5--|
E||----4----4----|----4------4---4----|

Fuente original ATAME [www.atame.org]
Colaborador original: Mariano Manieri [marianoelrusso@hotmail.com]

Fuente: tusacordes.com