a b c d e f g h i j k l m n o p q r s t u v w x y z 0-9

La Pequeña Novia Del Carioca

Patricio Rey Y Sus Redonditos De Ricota

			
Intro/Verso x2
|----------------|----------------|----------------|----------------|
|----------------|----------------|----------------|----------------|
|6---------------|4---------------|------------6---|4-----------4---|
|----------------|----------------|2---------------|----------------|
 
|----------------|----------------|----------------|----------------|
|----------------|----------------|----------------|----------------|
|6---6---6-------|4---4---4-------|------------6---|4---------------|
|------6---------|------4---------|2---------------|----------------|

Puente x1
|----------------|----------------|----------------|----------------|
|----------------|----------------|----------------|----------------|
|---/9-----------|4/--16-----4---|---/9-----------|4/--16----------|
|2-----------2---|----------------|2-----------2---|----------------|

Verso x1
Estribillo x2
|----------------|----------------|----------------|----------------|
|----------------|----------------|----------------|----------------|
|1-1--11-1-1---1-|----------------|1-1--11-1-1---1-|----------------|
|----------------|2-2--22-5-5---5-|----------------|2-2--22-1-1---1-|

Verso x1
Solo = Estribillo x2
Verso x1
Puente x1
Verso x1
Estribillo x2
Final = Verso 1

Fuente original ATAME [www.atame.org]
Colaborador original: mariano alvarez [alv_jor@yahoo.com.ar]

Fuente: tusacordes.com