a b c d e f g h i j k l m n o p q r s t u v w x y z 0-9

La Pequeña Novia Del Carioca

Patricio Rey Y Sus Redonditos De Ricota

			
1-------------------------------------------------6-------------------------
2---------------------------------------------6-------11--------------------
3-----8*---8*---6-------6*----------6-----8*--------------------------------
4----------------8-----------8---8------------------------------------------
5---------------------------------------------------------------------------
6---------------------------------------------------------------------------

1----9-----------------------11*---11*---11*----11---9------------------6---
2--------11------------9----------------------------------11----11----6---9*
3----------------10-------------------------------------------------8*------
4---------------------------------------------------------------------------
5---------------------------------------------------------------------------
6---------------------------------------------------------------------------

1---6-----------------------------------------------------------------------
2------9---6----------------------------------------------------------------
3--------------9-----8----6--------6----8*---8/6---8----8*----8*----8----6--
4------------------------------8-------------------------------------------8
5---------------------------------------------------------------------------
6---------------------------------------------------------------------------

1------------------------------------------16------16-----16------16-----16-
2---------------------------14------16*--------16*----16*-------16*----16*--
3-----6-----6---------8/15------15------------------------------------------
4--8-----8-----8---8--------------------------------------------------------
5---------------------------------------------------------------------------
6---------------------------------------------------------------------------

1---------16-----16-------16-----16------16-----16------16-----16-------16-----16
2------16*----16*------16*----16*-------16*----16*------16*----16*-----16*----16*-
3---------------------------------------------------------------------------
4---------------------------------------------------------------------------
5---------------------------------------------------------------------------
6---------------------------------------------------------------------------

1--------------------------------------------------------------------------
2---16----14-----16---14---------------------------------------------------
3-------------------------15--------6--8--8H6-----8------------------------
4------------------------------6H8-------------8---------------------------
5--------------------------------------------------------------------------
6--------------------------------------------------------------------------

Nota: El * significa que hay que estirar la cuerda 1 tono

Fuente original ATAME [www.atame.org]
Colaborador original: Emiliano [elmollo2000@hotmail.com]

Fuente: tusacordes.com