a b c d e f g h i j k l m n o p q r s t u v w x y z 0-9

La Pequeña Novia Del Carioca

Patricio Rey Y Sus Redonditos De Ricota

			
Intro
G|-------------------------|x2
D|-------------------------|
A|-6--4-------54---5-|
E|-----------2-----------|

Verso
G|-------------------------|x2
D|-------------------------|
A|-6--4-------54---5-|
E|-----------2-----------|

Puente
G|----------------|x2
D|-------------3--|
A|-----1---4-44-4-|
E|-2-22-2---------|

Verso
G|-------------------------|x2
D|-------------------------|
A|-6--4-------54---5-|
E|-----------2-----------|

Coro Parte Rápida
G|-----------------------------------------------------|x2
D|-----------------------------------------------------|
A|-11-0-1-11-0-1---------------11-0-1-11-0-1-11-0-1-11-|
E|---------------22-0-2-22-0-2-------------------------|

Verso
G|-------------------------|x2
D|-------------------------|
A|-6--4-------54---5-|
E|-----------2-----------|

Solo
G|-----------------------------------------------------|x2
D|-----------------------------------------------------|
A|-11-0-1-11-0-1---------------11-0-1-11-0-1-11-0-1-11-|
E|---------------22-0-2-22-0-2-------------------------|

Verso
G|-------------------------|x2
D|-------------------------|
A|-6--4-------54---5-|
E|-----------2-----------|

Puente
G|----------------|x2
D|-------------3--|
A|-----1---4-44-4-|
E|-2-22-2---------|

Verso
G|-------------------------|x2
D|-------------------------|
A|-6--4-------54---5-|
E|-----------2-----------|

Coro Parte Rápida
G|-----------------------------------------------------|x2
D|-----------------------------------------------------|
A|-11-0-1-11-0-1---------------11-0-1-11-0-1-11-0-1-11-|
E|---------------22-0-2-22-0-2-------------------------|

Verso
G|-------------------------|x2
D|-------------------------|
A|-6--4-------54---5-|
E|-----------2-----------|

Escuchá la canción para saber el ritmo

Fuente original ATAME [www.atame.org]
Colaborador original: Sebastián Vidondo [rojoamargodelsiglo@yahoo.com.ar]

Fuente: tusacordes.com