a b c d e f g h i j k l m n o p q r s t u v w x y z 0-9

La Pequeña Novia Del Carioca

Patricio Rey Y Sus Redonditos De Ricota

			
bueno aca esta el solo de este tema espero que les 
sirva de algo,lo saque de oido y la verdad es que suena
bastante bien.aca esta

e-------------|----------------------6-6-9--6v-|
B-------------|-----------6-------6--------------|
G--8br-8-6----|-6-------------8b-----------------|
D-----------8-|---8-8b-------------------------|
A-------------|----------------------------------|
E-------------|----------------------------------|


e------------11b-|-11b-11b-11-9---------------6---6------|
B------9---------|---------------11-11----6---9b--9b---|
G--/10---10------|-----------------------8b--------------|
D----------------|---------------------------------------|
A----------------|---------------------------------------|
E----------------|---------------------------------------|


e---------------------------------|
B---------------------------------|
G-8-6---6-8br-8h6--8-8b-8b-8-6----|
D-----8-----------------------8---|
A---------------------------------|
E---------------------------------|


e----------------------------------|
B--------------------14------16b---|
G---6---6-------8/15-----15--------|
D-8---8-----8-8--------------------|
A----------------------------------|
E----------------------------------|


e--16---16--16---16--16---16--16----16--16--|
B-------16b-16b--16b-16b--16b-16b---16b-16b-|
G-------------------------------------------|
D-------------------------------------------|
A-------------------------------------------|
E-------------------------------------------|


e--16--16---16--16---16--16-----------|
B--16b-16b--16b-16b--16b-16b--16--14--|
G-------------------------------------|
D-------------------------------------|
A-------------------------------------|
E-------------------------------------|


e-------------------------------------|
B--16-14------------------------------|
G--------15/------6-8-8br-8h6---8---|
D------------6h8--------------8-------|
A-------------------------------------|
E-------------------------------------|

bueno ahi lo tienen si tienen alguna duda o sugerencia
por favor manden mensaje a :aparipi_13@hotmail.com.
esta transcripcion se la dedico a mis mejores amigos:
GASTON,YAMILA Y NICOLAS ,a leandro , a fabian,al pony,
a maxi,a matias,a daniela,a sheila,a luciana,a jimena,
a las dos ayelen ,a sabrina ,a aprieta,a brenda,a diego,
y en especial a toda mi familia:
_a mi primo dj de la box:RAUL ADRIAN ARRIOLA
si quieren su casilla es:djraul9@hotmail.com
_a mi prima :INES
_a mis primos:LUCIA Y NICOLAS
_a mis tias:ADRIANA Y GRACIELA
_a mis hermanas:MARIELA Y NAZARENA
_a mi viejo:MANUEL
_Y Por ultimo a la persona que me apoya en todo
  a mi vieja :ANDREA.

bueno eso es todo espero no olvidarme de nadie
hasta la proxima

 DE ARIEL O MAS CONOCIDO COMO APARIPI

AGUANTE PAPPO ,LOS REDONDOS,Y GUNS N ROSES

Fuente original ATAME [www.atame.org]
Colaborador original: ariel ricardo velardez [ariel_velardez]

Fuente: tusacordes.com