a b c d e f g h i j k l m n o p q r s t u v w x y z 0-9

La Parabellum Del Buen Psicopata

Patricio Rey Y Sus Redonditos De Ricota

			
bueno este es primer tema que saque de los redondos ..
por eso les pido que me entiendan ,sobre todo en el solo 
(algun dia lo voy a arreglar, (si o si), para poder terminar 
con lo que me propuse) igual el solo te va a servir bastante 
como para tener una idea... si es que no la tenes.. capaz que 
ya te lo sabes... si es asi mandamelo al mail...
el resto del tema creo que esta bien ... 



   
         
    

INTRO: y Puente 


------

*Eduardo Skay Beilinson Guitarra

          RE                              RE 
E|------------------------------|-----------------------------------|
B|------------------------------|-----------------------------------|
G|-------7~~----5-5---4~~-------|---------7~~-----5-5----4~~--------|
D|-0-4-0----0-0-----0-----0-5-7-|-0-0-4-0-----0-0-----0------0-5-7--|
A|------------------------------|-----------------------------------|
E|------------------------------|-----------------------------------|

*Semilla Bucciarelli BAJO
                                                          RE
G|------------------------------|------------------------------------|
D|------------------------------|----------------------------0-5/7/5-|
A|------------------------------|------------------------------------|
E|------------------------------|------------------------------------|


*Guitarra Skay
         RE                              RE 
E|--------------------------------|------------------------------------|
B|--------------------------------|------------------------------------|
G|---------7~~----5-5---4~~-------|---------7~~-----5-5----4~~---------|
D|-0-0-4-0----0-0-----0-----0-5-7-|-0-0-4-0-----0-0-----0------0-5-7---|
A|--------------------------------|------------------------------------|
E|--------------------------------|------------------------------------|

*BAJO
    RE  Dejar Nota Sonando
G|--------------------------------|------------------------------------|
D|--------------------------------|----------------------------0-5/7/5-|
A|5-----------------------------|------------------------------------|
E|--------------------------------|------------------------------------|



    

VERSO:


-----

*Skay Beilinson  Durante el verso toca esto

    RE      DO     SI    SIb    RE   DO    SI    SIb    RE    DO   SI   SIb  DO  
E|------|------|------|-------|-----|-----|-----|-----|-----|-----|-----|---|----|
B|------|------|------|-------|-----|-----|-----|-----|-----|-----|-----|---|----|
G|-7-7--|-5-5--|-4-4--|3/---|-7-7-|-5-5-|-4-4-|3/-|-7-7-|-5-5-|-4-4-|---|----|
D|-7-7--|-5-5--|-4-4--|3/---|-7-7-|-5-5-|-4-4-|3/-|-7-7-|-5-5-|-4-4-|-3-|-5--|
A|-5-5--|-3-3--|-2-2--|1/---|-5-5-|-3-3-|-2-2-|1/-|-5-5-|-3-3-|-2-2-|-1-|-3--|
E|------|------|------|-------|-----|-----|-----|-----|-----|-----|-----|---|----|

*BAJO
   RE     DO      SI     SIb   RE     DO     SI   SIb   RE     DO    SI  SIb  DO
G|------|------|------|-------|-----|-----|-----|-----|-----|-----|-----|---|----|
D|------|------|------|-------|-----|-----|-----|-----|-----|-----|-----|---|----|
A|-5-5--|-3-3--|-2-2--|1/---|-5-5-|-3-3-|-2-2-|1/-|-5-5-|-3-3-|-2-2-|-1-|-3--|
E|------|------|------|-------|-----|-----|-----|-----|-----|-----|-----|---|----|



  RE      DO      SI      SIb      
La noche tira un salto mortal..
RE     DO       SI      SIb
 Pura tontera del punto G..
RE           DO      SI  SIb DO   RE + Puente
 Y el joven lobo quemándose de amooor.



    

PUENTE:

 Igual a la Intro
------

*Guitarra Skay
         RE                              RE 
E|--------------------------------|------------------------------------|
B|--------------------------------|------------------------------------|
G|---------7~~----5-5---4~~-------|---------7~~-----5-5----4~~---------|
D|-0-0-4-0----0-0-----0-----0-5-7-|-0-0-4-0-----0-0-----0------0-5-7---|
A|--------------------------------|------------------------------------|
E|--------------------------------|------------------------------------|

*BAJO
    RE  *Dejar Nota Sonando        RE  *Dejar Nota Sonando
G|--------------------------------|------------------------------------|
D|--------------------------0-5/7-|------------------------------------|
A|5-----------------------------|5---------------------------------|
E|--------------------------------|------------------------------------|



    

2° VERSO:

 
--------

*Skay Beilinson  Durante este verso toca esto

    RE      DO     SI    SIb    RE   DO    SI    SIb    RE    DO   SI   SIb  DO  
E|------|------|------|-------|-----|-----|-----|-----|-----|-----|-----|---|----|
B|------|------|------|-------|-----|-----|-----|-----|-----|-----|-----|---|----|
G|-7-7--|-5-5--|-4-4--|3/---|-7-7-|-5-5-|-4-4-|3/-|-7-7-|-5-5-|-4-4-|---|----|
D|-7-7--|-5-5--|-4-4--|3/---|-7-7-|-5-5-|-4-4-|3/-|-7-7-|-5-5-|-4-4-|-3-|-5--|
A|-5-5--|-3-3--|-2-2--|1/---|-5-5-|-3-3-|-2-2-|1/-|-5-5-|-3-3-|-2-2-|-1-|-3--|
E|------|------|------|-------|-----|-----|-----|-----|-----|-----|-----|---|----|

*BAJO
   RE     DO      SI     SIb   RE     DO     SI   SIb   RE     DO    SI  SIb  DO
G|------|------|------|-------|-----|-----|-----|-----|-----|-----|-----|---|----|
D|------|------|------|-------|-----|-----|-----|-----|-----|-----|-----|---|----|
A|-5-5--|-3-3--|-2-2--|1/---|-5-5-|-3-3-|-2-2-|1/-|-5-5-|-3-3-|-2-2-|-1-|-3--|
E|------|------|------|-------|-----|-----|-----|-----|-----|-----|-----|---|----|



  RE       DO    SI      SIb      
Está en la cima del volcán.
  RE   DO    SI      SIb      
Nunca pudo ser muy fiel.
RE      DO   SI    SIb DO   RE + Puente o Intro
Tímidamente moja el Suave estar.




    

2°PUENTE:


--------

*Guitarra Skay
         RE                              RE                     
E|---------------------------|---------------------------------------------------|
B|---------------------------|---------------------------------------------------|
G|--------7~~---5-5---4~-----|--------7~~----5-5---4^5^4^5^4^5^4^5^4^5^4^5^4^5^4/|
D|0-0-4-0----0-0----0---0-5-7|-0-0-4-0---0-0-----0-------------------------------|
A|---------------------------|---------------------------------------------------|
E|---------------------------|---------------------------------------------------|

*BAJO

    RE  *Dejar Nota Sonando        RE  *Dejar Nota Sonando
G|---------------------------|---------------------------------------------------|
D|----------------------0-5/7|---------------------------------------------------|
A|5------------------------|5------------------------------------------------|
E|---------------------------|---------------------------------------------------|




    

ESTRIBILLO:


----------

* Semilla Bucciarelli BAJO
    RE      RE       SIb          DO           RE      RE      RE SIb DO  RE  MI
G|-------|-------|-------------|-----------|-------|---------|---|---|---|---|---|
D|-----3-|------3|-------------|---------0-|-----3-|-------3-|---|---|---|---|---|
A|--5----|3--5---|5--1--1-1-3^1|3-3--3-3---|--5----|-3--5----|-5-|-1-|-3-|-5-|-7-|
E|-------|-------|-------------|-----------|-------|---------|---|---|---|---|---|

*GUITARRA con Distorción
           RE         SIb         DO           RE      RE      RE SIb DO  RE  MI
E|-----10|-----10|/-6-6--6-6-8-|-8-8--8-8-8|-/---10|-------10|---|---|---|---|---|
B|-----10|-----10|/-6-6--6-6-6-|-8-8--8-8-8|-/---10|-------10|---|---|---|---|---|
G|-------|-------|-------------|-----------|-------|---------|---|---|---|---|---|
D|-------|-------|-------------|-----------|-------|---------|---|---|---|---|---|
A|-------|-------|-------------|-----------|-------|---------|-5-|-1-|-3-|-5-|-7-|
E|-------|-------|-------------|-----------|-------|---------|---|---|---|---|---|

sigue asi

* Semilla Bucciarelli BAJO
   RE   RE       SIb          DO      RE    RE RE-SIb-DO-RE-MI-SIb-DO-RE-MI-RE
G|---|-----|------------|----------|-----|-----|--|--|--|--|--|--|--|--|--|---|
D|--3|----3|------------|---------0|----3|----3|--|--|--|--|--|--|--|--|--|---|
A|5--|3-5--|5-1--1-1-3^1|3-3--3-3--|-5---|3-5--|-5|-1|-3|-5|-7|-1|-3|-5|-7|5|
E|---|-----|------------|----------|-----|-----|--|--|--|--|--|--|--|--|--|---|


* Skay Bellinson.

   RE    RE     SIb         DO         RE  RE  RE-SIb-DO-RE-MI-SIb-DO-RE-MI-RE  
E|-10|---10|/6-6--6-6-8-|8-8--8-8-8|-/-10|---10|--|--|--|--|--|--|--|--|--|---|
B|-10|---10|/6-6--6-6-6-|8-8--8-8-8|-/-10|---10|--|--|--|--|--|--|--|--|--|---|
G|---|-----|------------|----------|-----|-----|--|--|--|--|--|--|--|--|--|---|
D|---|-----|------------|----------|-----|-----|--|--|--|--|--|--|--|--|--|7|
A|---|-----|------------|----------|-----|-----|-5|-1|-3|-5|-7|-1|-3|-5|-7|5|
E|---|-----|------------|----------|-----|-----|--|--|--|--|--|--|--|--|--|---|

RE       RE         SIb       DO
Y atrapa migajas de rock maravilla para este mundo.
RE       RE        RE SIb  DO  RE  MI
Y traga esas migas in-des-crip-ti-bles.
RE       RE         SIb       DO     
Y atrapa migajas de rock maravilla para este mundo.
RE       RE        RE SIb  DO  RE  MI   SIb DO  RE  MI  RE + PUENTE
Y traga esas migas in-des-crip-ti-bles  tru-cos de pla-cer...



    

3er PUENTE:

  Igual a la Intro
----------

*Guitarra Skay
         RE                              RE 
E|--------------------------------|------------------------------------|
B|--------------------------------|------------------------------------|
G|---------7~~----5-5---4~~-------|---------7~~-----5-5----4~~---------|
D|-0-0-4-0----0-0-----0-----0-5-7-|-0-0-4-0-----0-0-----0------0-5-7---|
A|--------------------------------|------------------------------------|
E|--------------------------------|------------------------------------|

*BAJO
    RE  *Dejar Nota Sonando        RE  
G|--------------------------------|------------------------------------|
D|--------------------------0-5/7-|------------------------------------|
A|5-----------------------------|5---------------------------------|
E|--------------------------------|------------------------------------|



    

3er VERSO: 

Igual que los demás
---------
RE       DO    SI      SIb      
Un tecno-duque trabajó,
RE       DO    SI      SIb      
nuevos gemidos para el show.
RE      DO        SI    SIb    DO   RE + Puente
Su industria de la diversión quebró.


*[REPITE EL PUENTE]




    

4to VERSO:

 Igual que los demás
---------

RE       DO    SI      SIb      
Un gran remedio para un gran mal.
RE       DO    SI      SIb      
Amores como flechas van
RE        DO      SI  SIb    DO   RE
Cruzando el sueño y te acribillarán.




    

[*REPITE EL 2do PUENTE] 




    

2°PUENTE:


--------

*Guitarra Skay
         RE                              RE                     
E|---------------------------|---------------------------------------------------|
B|---------------------------|---------------------------------------------------|
G|--------7~~---5-5---4~-----|--------7~~----5-5---4^5^4^5^4^5^4^5^4^5^4^5^4^5^4/|
D|0-0-4-0----0-0----0---0-5-7|-0-0-4-0---0-0-----0-------------------------------|
A|---------------------------|---------------------------------------------------|
E|---------------------------|---------------------------------------------------|

*BAJO

    RE  *Dejar Nota Sonando        RE  *Dejar Nota Sonando
G|---------------------------|---------------------------------------------------|
D|----------------------0-5/7|---------------------------------------------------|
A|5------------------------|5------------------------------------------------|
E|---------------------------|---------------------------------------------------|

 

    

2do ESTRIBILLO:

     Guitarra y Bajo Igual que en el Primer Estribillo
--------------

RE       RE         SIb       DO
Y atrapa migajas de rock maravilla para este mundo.
RE       RE        RE SIb  DO  RE  MI
Y traga esas migas in-des-crip-ti-bles.
RE       RE         SIb       DO     
Y atrapa migajas de rock maravilla para este mundo.
RE       RE        RE SIb  DO  RE  MI   SIb DO  RE  MI  RE 
Y traga esas migas in-des-crip-ti-bles  tru-cos de pla-cer...




    

*SOLO DE GUITARRA:


------------------

*Eduardo Skay Bellinson  Guitarra bien Distorcionada

b= bend estirar Cuerda
        RE                             RE
E|---------------------------|---------------------------------------------------|
B|---------------------------|---------------------------------------------------|
G|--------7~~---5-5---4~-----|--------7~~----5-5---4^5^4^5^4^5^4^5^4^5^4^5^4^5^4/|
D|0-0-4-0----0-0----0---0-5-7|-0-0-4-0---0-0-----0-------------------------------|
A|---------------------------|---------------------------------------------------|
E|---------------------------|---------------------------------------------------|
          LA                                      LA
E|-------------------------------------------|--------------------3~~~~~~~~------|
B|-------2-3-5-------------------------------|-------2-3-5-5-2-------------------|
G|-2---------2^0^2^0^2^0^2^0^2^0^2^0^2^0^2-|---2-----------2-----------------|
D|-2---------------------------------------|2--2-----------------------------|
A|-0---------------------------------------|0--0-----------------------------|
E|-------------------------------------------|-----------------------------------|
            LA                                     LA                 trem. bar
E|-------------------------------------------|--------------------3~~~~~~~~------|
B|------2-3-5--------------------------------|-------2-3-5-5-2-------------------|
G|-2--------2^0^2^0^2^0^2^0^2^0^2^0^2^0^2|---2-----------2-----------------|
D|-2---------------------------------------|2--2-----------------------------|
A|-0---------------------------------------|0--0-----------------------------|
E|-------------------------------------------|-----------------------------------|
             RE                          RE                        trem. bar palanca
E|-----2-----3---3--2----|---------12-----12-14-15-14-12-------------------------|
B|-3---3-----2------3--|3----------------------------16-15-16-17-18b~~~~/----|
G|-2-----2------------2|2-/-11----14-----------------------------------------|
D|-0-------------------|0----------------------------------------------------|
A|-----------------------|-------------------------------------------------------|
E|-----------------------|-------------------------------------------------------|
            LA                                     LA
E|------------------------------------|---------------------------------------------------------|
B|-----------------15-16-18-16-15-----|---------------------------------------------------------|
G|11-12-14-14~~-14----------------14--|11-12-14-14~-14-12-11------------------------------------|
D|----------------------------------15|---------------------14-12-11----------------------------|
A|------------------------------------|-----------------------------13-11-10/12-12-9^10--12-12-0|
E|------------------------------------|---------------------------------------------------------|
    
      RE                      RE
E|-----2-----3---3--2----|---------12-----12-14-15-14-12-------------------------|
B|-3---3-----2------3--|3----------------------------16-15-16-17-18b~~~~/----|
G|-2-----2------------2|2-/-11----14-----------------------------------------|
D|-0-------------------|0----------------------------------------------------|
A|-----------------------|-------------------------------------------------------|
E|-----------------------|-------------------------------------------------------|
          LA                                               LA
E|-------------------------------------------------|--------------------------------|
B|-----------------15-16-18-15-16-18-15-16-18-16-15|--------------------------------|
G|11-12-14-14~~-14---------------------------------|--------------------------------|
D|-------------------------------------------------|--------------------------------|
A|-------------------------------------------------|--------------------------------|
E|-------------------------------------------------|--------------------------------|
            SOL         trem. bar      SOL                            RE
E|---------------------3~~~~~|-------------------|-----2-----3---3--2----------|
B|------2-3-5-3-2------------|-----2-3-5-3-2-----|3----3-----2------3--------|
G|-4~-4-----------4-2--------|4~-4-----------4-2-|2------2------------2------|
D|---------------------------|-------------------|0--------------------------|
A|---------------------------|-------------------|-----------------------------|
E|---------------------------|-------------------|-----------------------------|

       LA                  LA
E|-----------------|---------------------|
B|-----------------|---------------------|
G|-----------------|---------------------|
D|-7-------------|-------7-7--/------|
A|-7-------------|-------7-7--/------|
E|-5-------------|-------5-5--/------|



*BAJO Durante el Solo de Guitarra-
-----
   RE  *Dejar Nota Sonando        RE  *Dejar Nota Sonando
G|---------------------------|---------------------------------------------------|
D|----------------------0-5/7|---------------------------------------------------|
A|5------------------------|5------------------------------------------------|
E|---------------------------|---------------------------------------------------|
     LA            LA                 LA                 LA
G|--------------|------------------|-------------------|-------------------------|
D|--------------|------------------|-------------------|-------------------------|
A|--------------|------------------|-------------------|-------------------------|
E|-5----55--|-5---------5-5|--5--------55--|-5-----------5-5-----|

       RE             RE               LA                 LA
G|--------------|------------------|-------------------|-------------------------|
D|--------------|------------------|-------------------|-------------------------|
A|-5-----55-|-5--------55--|-------------------|-------------------------|
E|--------------|------------------|-5--------55---|-5-------------55----|

      RE             RE               LA                 LA
G|--------------|------------------|-------------------|-------------------------|
D|--------------|------------------|-------------------|-------------------------|
A|-5-----55-|-5--------55--|-------------------|-------------------------|
E|--------------|------------------|-5--------55---|-5-------------55----|

     SOL               SOL               RE                  LA
G|--------------|-------------------|--------------------|-----------------------|
D|--------------|-------------------|--------------------|-----------------------|
A|--------------|-------------------|-5---------55---|-----------------------|
E|-3-----33-|--3-------33---|--------------------|-5--------5---5----|



2da GUITARRA  distorcionada durante el SOLO de Guitarra
------------
    RE         RE       LA       LA        LA      LA       RE          RE
E|---------|---------|--------|--------|--------|--------|---------|-------------|
B|---------|---------|--------|--------|--------|--------|---------|-------------|
G|---------|---------|--------|--------|--------|--------|--7----|----7------|
D|---------|---------|--7---|--7---|--7---|--7---|--7----|----7------|
A|---------|---------|--7---|--7---|--7---|--7---|--5----|----5------|
E|---------|---------|--5---|--5---|--5---|--5---|---------|-------------|
   LA         LA       RE         RE     LA       LA        SOL       SOL
E|---------|---------|--------|--------|--------|--------|---------|-------------|
B|---------|---------|--------|--------|--------|--------|---------|-------------|
G|---------|---------|--7---|---7--|--------|--------|---------|-------------|
D|--7----|---7---|--7---|---7--|---7--|--7---|---5---|----5------|
A|--7----|---7---|--5---|---5--|---7--|--7---|---5---|----5------|
E|--5----|---5---|--------|--------|---5--|--5---|---3---|----3------|

   RE        LA              
E|---------|---------------||
B|---------|---------------||
G|--7----|---------------||
D|--7----|-7-----7-7-||
A|--5----|-7-----7-7-||
E|---------|-5-----5-5-||




    

REPITE Primer y 4to Verso.


-------------------------


  RE      DO      SI      SIb      
La noche tira un salto mortal..
RE     DO       SI      SIb
 Pura tontera del punto G..
RE           DO      SI  SIb DO   RE + PUENTE
 Y el joven lobo quemándose de amooor.
   

[Repite PUENTE]

   
4to VERSO: 

Igual que los demás
---------

RE       DO    SI      SIb      
Un gran remedio para un gran mal.
RE       DO    SI      SIb      
Amores como flechas van
RE        DO      SI  SIb    DO   RE
Cruzando el sueño y te acribillarán.
   

[REPITE 2do PUENTE] 
  
   

REPITE ESTRIBILLO: 

 igual
------------------

RE       RE         SIb       DO
Y atrapa migajas de rock maravilla para este mundo.
RE       RE        RE SIb  DO  RE  MI
Y traga esas migas in-des-crip-ti-bles.
RE       RE         SIb       DO     
Y atrapa migajas de rock maravilla para este mundo.
RE       RE        RE SIb  DO  RE  MI   SIb DO  RE  MI  RE 
Y traga esas migas in-des-crip-ti-bles  tru-cos de pla-cer...

    

FINAL:

    Solo De SAXO
-----


* Semilla Bucciarelli BAJO
    RE      RE       SIb          DO           RE      RE      RE SIb DO  RE  MI
G|-------|-------|-------------|-----------|-------|---------|---|---|---|---|---|
D|-----3-|------3|-------------|---------0-|-----3-|-------3-|---|---|---|---|---|
A|--5----|3--5---|5--1--1-1-3^1|3-3--3-3---|--5----|-3--5----|-5-|-1-|-3-|-5-|-7-|
E|-------|-------|-------------|-----------|-------|---------|---|---|---|---|---|

*GUITARRA con Distorción
           RE         SIb         DO           RE      RE      RE SIb DO  RE  MI
E|-----10|-----10|/-6-6--6-6-8-|-8-8--8-8-8|-/---10|-------10|---|---|---|---|---|
B|-----10|-----10|/-6-6--6-6-6-|-8-8--8-8-8|-/---10|-------10|---|---|---|---|---|
G|-------|-------|-------------|-----------|-------|---------|---|---|---|---|---|
D|-------|-------|-------------|-----------|-------|---------|---|---|---|---|---|
A|-------|-------|-------------|-----------|-------|---------|-5-|-1-|-3-|-5-|-7-|
E|-------|-------|-------------|-----------|-------|---------|---|---|---|---|---|

sigue asi

* Semilla Bucciarelli BAJO
   RE   RE       SIb          DO      RE    RE RE-SIb-DO-RE-MI-SIb-DO-RE-MI-RE
G|---|-----|------------|----------|-----|-----|--|--|--|--|--|--|--|--|--|---|
D|--3|----3|------------|---------0|----3|----3|--|--|--|--|--|--|--|--|--|---|
A|5--|3-5--|5-1--1-1-3^1|3-3--3-3--|-5---|3-5--|-5|-1|-3|-5|-7|-1|-3|-5|-7|5|
E|---|-----|------------|----------|-----|-----|--|--|--|--|--|--|--|--|--|---|


* Skay Bellinson.

   RE    RE     SIb         DO         RE  RE  RE-SIb-DO-RE-MI-SIb-DO-RE-MI  
E|-10|---10|/6-6--6-6-8-|8-8--8-8-8|-/-10|---10|--|--|--|--|--|--|--|--|--|
B|-10|---10|/6-6--6-6-6-|8-8--8-8-8|-/-10|---10|--|--|--|--|--|--|--|--|--|
G|---|-----|------------|----------|-----|-----|--|--|--|--|--|--|--|--|--|
D|---|-----|------------|----------|-----|-----|--|--|--|--|--|--|--|--|--|
A|---|-----|------------|----------|-----|-----|-5|-1|-3|-5|-7|-1|-3|-5|-7|
E|---|-----|------------|----------|-----|-----|--|--|--|--|--|--|--|--|--|


FIN~~    RE

E|------------------|
B|------------------|
G|-----7~~~-------|
D|-----7~~~-------|
A|-----5~~~-------|
E|------------------|

chau..
mandenme tabs de los redondos sobre todo los solos y los riff´s asi los saco a todos bien completos ,,,
elguille665@hotmail.com

-----------------------------------------------------------------------------------------

Fuente original ATAME [www.atame.org]
Colaborador original: GUILLERMO [elguille665@hotmail.com]

Fuente: tusacordes.com