a b c d e f g h i j k l m n o p q r s t u v w x y z 0-9

La Parabellum Del Buen Psicopata

Patricio Rey Y Sus Redonditos De Ricota

			
Durante el Intro y el Riff principal de Guitarra:
G|-------------|
D|-------------|
A|-2/x---2/x---|
E|-------------|

 Verso #1:
G|----------------------|
D|----------------------|
A|-5-5--3-3--2-2--------|
E|----------------6-6---|

 Verso #2 la parte de Atrapa, migajas...:
G|-------------------------|
D|---4------2------1-------|
A|-5----5-3----3-2---------|
E|--------------------6----|

 Durante el Solo de Guitarra:
G|-----------------------|
D|-----------------------|
A|-5--3--2---------|
E|----------------6----|

 Durante el Solo de Saxo:
G|-------------------------|
D|---4------2------1-------|
A|-5----5-3----3-2---------|
E|--------------------6----|

Escuchá la canción para saber el ritmo

Fuente original ATAME [www.atame.org]
Colaborador original: Sebastián Vidondo [rojoamargodelsiglo@yahoo.com.ar]

Fuente: tusacordes.com