a b c d e f g h i j k l m n o p q r s t u v w x y z 0-9

La Murga De Los Renegados

Patricio Rey Y Sus Redonditos De Ricota

			
Intro
G|--------------------|-------------------------------------------|
D|--------------------|-------------------------------------------|
A|-77---77---77---77--|------------------------7-5-4-5--7-5-4-5-7-|
E|--------------------|-0-3-1-2-3--0-5-3-4-5--0--------0----------|
                      |      Este   Riff   va   DOS   Veces       | 
Coro
G|--------------------|x2
D|--------------------|
A|-77---77---77---77--|
E|--------------------|

Verso
G|------------------|------------------|------------------|-----|
D|------------------|------------------|------------------|-----|
A|-77-56-77---------|-77-56-77---------|-77-56-77---------|-7-|
E|---------33-12-33-|---------33-12-33-|---------33-12-33-|-----|

Coro
G|--------------------|x2
D|--------------------|
A|-77---77---77---77--|
E|--------------------|

Verso
G|------------------|------------------|------------------|-----|
D|------------------|------------------|------------------|-----|
A|-77-56-77---------|-77-56-77---------|-77-56-77---------|-7-|
E|---------33-12-33-|---------33-12-33-|---------33-12-33-|-----|

Coro
G|--------------------|x2
D|--------------------|
A|-77---77---77---77--|
E|--------------------|

Solo de Guitarra
G|-------------------------------------------|------------------|
D|-------------------------------------------|--6-9-------------|
A|-77-4-5-4-5-6-77-4567----------------------|-7---7--2-5-------|
E|----------------------33-0-1-0-1-2-33-0123-|-------3---3-45-|
 |    Este   Riff   va   DOS    Veces        |   DOS   Veces    |

Coro
G|--------------------|x2
D|--------------------|
A|-77---77---77---77--|
E|--------------------|

Verso
G|------------------|------------------|------------------|-----|
D|------------------|------------------|------------------|-----|
A|-77-56-77---------|-77-56-77---------|-77-56-77---------|-7-|
E|---------33-12-33-|---------33-12-33-|---------33-12-33-|-----|

Coro
G|--------------------|x2
D|--------------------|
A|-77---77---77---77--|
E|--------------------|

Solo de Guitarra Final
G|------------------------------------------|------------------|-------------------------|--------------|
D|------------------------------------------|------------------|--6-9--------------------|--------------|
A|-77-4-5-4-5-6-77-4567---------------------|-77-56-77---------|-7---7--2-5--7-567-7-567-|-7-567--7-567-|
E|---------------------33-0-1-0-1-2-33-0123-|---------33-12-33-|-------3---3-------------|--------------|
 |    Este    Riff    va    DOS   Veces     |   CUATRO Veces   |       CUATRO  Veces     |Hasta el Final| 

Escuchá la canción para saber el ritmo

Fuente original ATAME [www.atame.org]
Colaborador original: Sebastián Vidondo [rojoamargodelsiglo@yahoo.com.ar]

Fuente: tusacordes.com