a b c d e f g h i j k l m n o p q r s t u v w x y z 0-9

La Hija Del Fletero

Patricio Rey Y Sus Redonditos De Ricota

			
intro.

guitarra:
   DOm          FAsus 2
e|-----3--|-3-3--3-3--3-3--3-3-|-----|--------|-----|--------|-----|--------||
B|-----4--|-6-6--6-6--6-6--6-6-|-----|--------|-----|--------|-----|--------||
G|-5-5--|-5-5--5-5--5-5--5-5-|-DOm-|-FAsus2-|-DOm-|-FAsus2-|-DOm-|-FAsus2-|| X2
D|-5----|-3-3--3-3--3-3--3-3-|-----|--------|-----|--------|-----|--------||
A|-3----|--------------------|-----|--------|-----|--------|-----|--------||
E|--------|--------------------|-----|--------|-----|--------|-----|--------||

BAJO: entra en la segunda vuelta

G|--------|--------------------|-----|--------|-----|--------|-----|--------||
D|--------|--------------------|-----|--------|-----|--------|-----|--------||
A|--3---|--------

Fuente original ATAME [www.atame.org]
Colaborador original: GUILLE [elguille665@hotmail.com]

Fuente: tusacordes.com