a b c d e f g h i j k l m n o p q r s t u v w x y z 0-9

La Hija Del Fletero

Patricio Rey Y Sus Redonditos De Ricota

			
Intro:
  G|------------------------|
  D|------------------------|
  A|-3/15--15/---3/15--15/--|
  E|------------------------|

Verso:
  G|------------------------|------------------------| x2
  D|----2/5-----------------|------------------------|
  A|-------------------5----|-------------------5----|
  E|-5-------3-5---3-5----3-|-5--5-3--3-5---3-5----3-|

Coro:
  G|----------------3-------|------------------------| x1
  D|--------------3---5-3---|------------------------|
  A|------------------------|------------------------|
  E|-3--3-1--1-3------------|-3--3-1--1-3--1-4-4-4-4-|

Verso x2
Coro x1

Solo:
  G|------------------------| x4
  D|------------------------|
  A|-------------------7----|
  E|-7--7-5--5-7---5-7----5-|

Verso x2
Coro x1
Verso x2
Coro x1
Verso repetir las veces necesarias

Fuente original ATAME [www.atame.org]
Colaborador original: Ary Magarian [arymagarian@hotmail.com]

Fuente: tusacordes.com