a b c d e f g h i j k l m n o p q r s t u v w x y z 0-9

La Dicha No Es Una Cosa Alegre

Patricio Rey Y Sus Redonditos De Ricota

			
Intro:
GUITARRA:
   Riff 1              Riff 2                  Riff 3                          RIFF 4
E|----------3|--|----------------------3-|----------------------3-|-----|------------------3|
B|-1h3------3|--|----3-2-2-0--333-2-0--3-|----3-2-2-0--333-2--3-3-|-----|----3-2-0-0h2--3---3-|
G|-----0--0|--|0-0-0-0-0--000-0-0----|0-0-0-0-0--000-0--0---|Riff2|0-0-0-0-0h0--0-0---|
D|-------------|x2|------------------------|------------------------|-----|---------------------|
A|-------------|--|------------------------|------------------------|-----|---------------------|
E|-------------|--|------------------------|------------------------|-----|---------------------|  
BAJO:
sobre riff 1                    SOl sobre los riff2,3 y 4
G|--------|----------------|--------------------------------||
D|--------|----------------|--------------------------------||
A|--------|----------------|--------------------------------||
E|-3-3|1/3-1/3-1/3-1/3-|-3-3-3-3-3-3-3-3-3-3-3-3-3-3-3-3||


PARTE 2 De la Intro:
Guitarra:                                                 ___x3__
      FA    DO           Sib SOl    Punteo 1             |       |    Punteo 2
E|-------|----------|--|--6--7---|-10-10-10-10----(10-)-|----|----|-------------------------|
B|-------|----------|--|--6--8---|----------------11b-|----|----|-3-3---3-3---5-----------|
G|-5-5-5-|5---555-|--|---------|-------------12-------|-FA-|-DO-|-3-3---3-3---5br-p3------|
D|-3-3-3-|5---555-|X3|---------|----------------------|----|----|-----5-----5-------5-5-|
A|-------|3---333-|--|---------|----------------------|----|----|-------------------------|
E|-------|----------|--|---------|----------------------|----|----|-------------------------|

BAJO:
    FA      DO      Sib  SOL
G|-------|-----|--|-----|------|
D|-------|-----|X3|-----|------| todo esto X2
A|-------|-3-|--|--1--|------|
E|-1-1-1-|-----|--|-----|-3--|


VERSO 1:

GUITARRA: hace esto
                         "una rumbita se armo..
E|-1-1-1-1-/-3--3-3--6-8--------------------3-3-3--------------------------|
B|-1-1-1-1-/-3--3-3--6-8--------------------3-3-3--6-----------------------|
G|---------------------------------------------------5--3-/-5-5-5---5-5-3--| X3
D|------------------------------------------------------3-/-5-5-5---5-5-3--|
A|---------------------------------------------------------------------------|
E|---------------------------------------------------------------------------|

BAJO:
      Sol             DO            Sol       FA      DO
G|---------------|------5------5-|-------|--------|-----5-------5--|
D|------5------5-|---------------|-----5-|-----3--|----------------|
A|---------------|-3-3----3-3----|-------|--------|-3--3----3--3---| X3
E|-3-3----3-3----|---------------|-3-3---|-1-1----|----------------|


SOBRE GUITARRA

do              Sol Fa
  Una rumbita se armó,
Do             Sol
  una fea carcajada
Do                 Sol Fa
  Incombustible no sos,
Do                    Sol
  ¿como bancás ese infierno?
Do                        Sol    Fa     Do
  Soñás la hoguera donde siempre sos la leña.


ESTRIBILLO 1:

Guitarra:                                    ___x3__
      FA    DO           Sib SOl    *       |       |  Sib SOl
E|-------|----------|--|--6--7---|-------33|----|----|-6---7-|
B|-------|----------|--|--6--8---|-------33|----|----|-6---8-|
G|-5-5-5-|5---555-|--|---------|---------|-FA-|-DO-|---------|
D|-3-3-3-|5---555-|X3|---------|---------|----|----|---------|
A|-------|3---333-|--|---------|---------|----|----|---------|
E|-------|----------|--|---------|---------|----|----|---------|
                              "esclavizado asi.....          estas hundido a fondo.... 
BAJO:
    FA      DO      Sib  SOL
G|-------|-----|--|-----|------|
D|-------|-----|X3|-----|------| todo esto X2
A|-------|-3-|--|--1--|------|
E|-1-1-1-|-----|--|-----|-3--|



  Fa Do  Fa Do  Fa  Do  Sib   Sol
¿Cuánto tiempo más vas   a   estar
             *
Esclavizado así 

Fa Do Fa Do    Fa Do Sib Sol
Re fugia do en tu so le  dad?

estas hundido a fondo a fondo


VERSO 2: todo igual

Guitarra 2: guitarra sin distorcion

  SOL      DO       SOL            FA     DO
E|-----|------|--------------|--------|----------| 
B|-----|------|--------------|--------|----------| 
G|-----|------|--------------|--------|--5-5-3-| X3
D|--?--|--?---|-3-5-3---5-3|---?----|--5-5-3-| 
A|-----|------|-------5------|--------|----------| 
E|-----|------|--------------|--------|----------| 


Estás tomando de más
y estás tolerando todo.
Lastimas tu corazón
porque ella te ha abandonado.
Quedaste mordiendo el aire solo y sin dolor



ESTRIBILLO 2 Igual

¿Cuánto tiempo más vas a estar
esclavizado así
refugiado en tu soledad?
con tu tortura de TV siempre así


PUENTE:
Guitarras:                   ________________X2___________
    SI      Sib    SOl       | Mi            SOL       DO |     RE
E|--------|-------|-----|--|-------------|--------|--------|----------------------------|
B|--------|-------|-----|--|-------------|--------|--------|---------------7------------|
G|--------|-------|-----|X4|--------9-9-9|--------|-5----|--7--7---5-7-----7-5-7~~--|
D|--9-9-9-|-8-8-8-|-5-5-|--|-2----9-9-9|-5-5-5--|-5----|--7----7-----7--------------|
A|--9-9-9-|-8-8-8-|-5-5-|--|-2-/--7-7-7|-5-5-5--|-3----|--5-------------------------|
E|--7-7-7-|-6-6-6-|-3-3-|--|-0---------|-3-3-3--|--------|----------------------------|

BAJO:                        ________________X2___________
    SI      Sib    SOl      | Mi            SOL       DO  |     RE                    
G|--------|-------|-----|--|-------------|--------|--------|---------------------|------|
D|--------|-------|-----|X4|-------------|--------|--------|---------------------|------|
A|--------|-------|-----|--|-------------|--------|-3----|--5-3-5--5--3-5--|-5--|
E|--7-7-7-|-6-6-6-|-3-3-|--|-0-0-0-0-0-0-|-3-3-3--|--------|---------------------|------|

 
VERSO 3: igual verso 2


La mujercita que amas,
esa suave flor judoka,
la va de maga zulú
y combina tus venenos
haciendose la ingenioso, odiosa siempre fiel.


ESTRIBILLO 3 Igual

¿Cuánto tiempo más vas a estar
Esclavizado así
refugiado en tu soledad?
estas hundido a fondo a fondo


VERSO 4 igual verso 2

Mientras la vida se va
Ay, mientras la vida pasa
sin darte cuenta ahí estas
con tu cara de colgado
tu ángel guardian es de todos el más tonto que hay


ESTRIBILLO 4 Igual

Cuanto tiempo más vas a estar
esclavizado así
refugiado en tu soledad?
con tu tortura de TV siempre así

FINAL con una parte del puente

Tenés la mejor mano
para sellar tus labios

Guitarras:                   
    SI      Sib    SOl       
E|--------|-------|-----|
B|--------|-------|-----|
G|--------|-------|-----|X20   FADE OUT
D|--9-9-9-|-8-8-8-|-5-5-|
A|--9-9-9-|-8-8-8-|-5-5-|
E|--7-7-7-|-6-6-6-|-3-3-|

BAJO:                       
    SI      Sib    SOl      
G|--------|-------|-----|
D|--------|-------|-----|X20     FADE OUT
A|--------|-------|-----|
E|--7-7-7-|-6-6-6-|-3-3-|

fin.

Fuente original ATAME [www.atame.org]
Colaborador original: Guille [elguille665@hotmail.com]

Fuente: tusacordes.com