a b c d e f g h i j k l m n o p q r s t u v w x y z 0-9

La Dicha No Es Una Cosa Alegre

Patricio Rey Y Sus Redonditos De Ricota

			
Intro: Sol o riff 1
[Sol Solb] x8 o riff 2 + riff 3, riff 2 + riff 4
[Fa Do] x2  Fa Do Sib Solx2 o riff 5 + riff 6 x1
                                riff 5 + riff 7 x1

Con riff 8 x2
Do                 Sol Fa
  Una rumbita se armó,
Do             Sol
  una fea carcajada
Do                 Sol Fa
  Incombustible no sos,
Do                    Sol
  ¿como bancás ese infierno?
Do                        Sol    Fa     Do
  Soñás la hoguera donde siempre sos la leña.

  Fa Do  Fa Do  Fa  Do  Sib   Sol
¿Cuánto tiempo más vas   a   estar
Esclavizado así
Fa Do Fa Do    Fa Do Sib Sol
Re fugia do en tu so le  dad?
estas hundido a fondo a fondo

Estás tomando de más
y estás tolerando todo.
Lastimas tu corazón
porque ella te ha abandonado.
Quedaste mordiendo el aire solo y sin dolor

¿Cuánto tiempo más vas a estar
esclavizado así
refugiado en tu soledad?
con tu tortura de TV siempre así

[Si5 Sib5 Sol5] x4 Mi7

Sol7 Do7 Mi7 Sol7 Do7 Re7 Sol

La mujercita que amas,
esa suave flor judoka,
la va de maga zulú
y combina tus venenos
haciendose la ingenioso, odiosa siempre fiel.

¿Cuánto tiempo más vas a estar
Esclavizado así
refugiado en tu soledad?
estas hundido a fondo a fondo

Mientras la vida se va
Ay, mientras la vida pasa
sin darte cuenta ahí estas
con tu cara de colgado
tu ángel guardian es de todos el más tonto que hay

Cuanto tiempo más vas a estar
esclavizado así
refugiado en tu soledad?
con tu tortura de TV siempre así

Tenés la mejor mano
para sellar tus labios.


Sol Solb  Fa  Do  Sib Si5 Sib5 Sol5 Sol7 Do7 Mi7 Re7
-3-|--2--|-1-|-0-|-x-|-x-|-x-|--x--|-3-|--0-|-0-|-2-|-
-3-|--2--|-1-|-1-|-3-|-x-|-x-|--x--|-3-|--1-|-3-|-1-|-
-4-|--3--|-2-|-0-|-3-|-4-|-3-|--x--|-4-|--3-|-1-|-2-|-
-5-|--4--|-3-|-2-|-3-|-4-|-3-|--5--|-3-|--2-|-0-|-0-|-
-5-|--4--|-3-|-3-|-1-|-2-|-1-|--5--|-5-|--3-|-2-|-x-|-
-3-|--2--|-1-|-x-|-x-|-x-|-x-|--3--|-3-|--x-|-0-|-x-|-

Riff 1:             Riff 5:

-------3-|-------3-----| -----------|---------|---------6-3-|
-1h3---3-|-1h3---3-----| -----------|---------|---------6-3-|
-----0-0-|-----0-0-----| --2-3-2-0--|-2-3-2-0-|-2-3-2-0-----| 
---------|-------------| -----------|---------|-------------|
---------|-------------| -----------|---------|-------------|
---------|-------------| -----------|---------|-------------|

Riff 2:              Riff 6:

----------------------| -----10-10-10-10------10---|----
---3-2-0-3-3-3-2-0-3--| ----------------------11e--|---- 
-0-0-0-0-0-0-0-0-0-0--| ------------------12-------|----
----------------------| ---------------------------|----
----------------------| ---------------------------|----
----------------------| ---------------------------|----
Riff 3:              Riff 7:

---------------------3-| --6-7-------------------------|--
---3-2-0-3-3-3-2-3-----| --6-8--3-3---3-3--------------|--
-0-0-0-0-0-0-0-0-0-0---| -------3-3---3-3---5e5h3----|--
-----------------------| -----------5-----5--------5-5-|--
-----------------------| ------------------------------|--
-----------------------| ------------------------------|--

Riff 4:               Riff 8:

----------------3--------|-1-1/3-3-3-6-8--|-3----------------|  
---3-2-2-0-2-3-3---------|-1-1/3-3-3-6-8--|-3-6--------------|
-0-0-0-0-0-0-0-----------|----------------|---5-3h5-5-5-5-3--|
-------------------------|----------------|-----3h5-5-5-5-3--|         
-------------------------|----------------|------------------|
-------------------------|----------------|------------------|

Fuente original ATAME [www.atame.org]
Colaborador original: Curda [santi_elquemero hotmail.com]

Fuente: tusacordes.com