a b c d e f g h i j k l m n o p q r s t u v w x y z 0-9

La Dicha No Es Una Cosa Alegre

Patricio Rey Y Sus Redonditos De Ricota

			
Intro
G|----|----|-----------------|
D|----|----|-----------------|
A|----|----|-----------------|
E|-3--|-3--|-1/3-1/3-1/3-1/3-|

 |----------|x8
 |----------|
 |----------|
 |-33333333-|
 
 |----------------------|x2
 |----------------------|
 |----3-----3-----3-1---|
 |-11----11----11-----3-|

Verso
G|----------4-7----2-5---|x6
D|---2-5--5------3-------|
A|-3---------------------|
E|-----------------------|

Coro
G|-----------------------|x2
D|-----------------------|
A|----3-----3-----3-1----|
E|-11----11----11-----3--|

Verso
G|----------4-7----2-5---|x6
D|---2-5--5------3-------|
A|-3---------------------|
E|-----------------------|

Coro
G|-----------------------|x2
D|-----------------------|
A|----3-----3-----3-1----|
E|-11----11----11-----3--|

Puente
G|----------|x4 |-----|
D|----------|   |-----|
A|-111111---|   |-7-| 
E|--------3-|   |-----|

 |-------------------------------|
 |-------------------------------|
 |-----333-7-----333-7-----333-5-|
 |-333-------333-------333-------|
 
 |-------------------------|
 |----44-77-------44-77----|
 |-55-------5--55----------|
 |----------------------3--|

Verso
G|----------4-7----2-5---|x6
D|---2-5--5------3-------|
A|-3---------------------|
E|-----------------------|

Coro
G|-----------------------|x2
D|-----------------------|
A|----3-----3-----3-1----|
E|-11----11----11-----3--|

Verso
G|----------4-7----2-5---|x6
D|---2-5--5------3-------|
A|-3---------------------|
E|-----------------------|

Coro
G|-----------------------|x2
D|-----------------------|
A|----3-----3-----3-1----|
E|-11----11----11-----3--|

Final
G|-----------|x20
D|-----------|
A|-111111----|
E|--------3--|

Escuchá la canción para saber el ritmo

Fuente original ATAME [www.atame.org]
Colaborador original: Sebastián Vidondo [rojoamargodelsiglo@yahoo.com.ar]

Fuente: tusacordes.com