a b c d e f g h i j k l m n o p q r s t u v w x y z 0-9

La Bestia Pop

Patricio Rey Y Sus Redonditos De Ricota

			
A - Verso
G||--------------------||---------------------|---------------------|
D||--------------------||*--------------------|---------------------|
A||--------------------||*--2-----------------|----------------1----|
E||----------3----2----||------------2--------|--0--------2---------|


                                              4x   B - Estribillo
|--------------------|------------------------||-------------------------|
|-----------4--------|-----------------------*||*------------0--0--4--0--|
|--2-----------------|-----------------------*||*--2------2--------------|
|--------------------|--0--0--0----3----2-----||-------------------------|


                        4x    A
|-----------------------||---------------------|---------------------|
|----------0-----------*||*--------------------|---------------------|
|-------2--------------*||*--2-----------------|----------------1----|
|--3----------2---------||------------2--------|--0--------2---------|


                                              2x    B
|--------------------|------------------------||-------------------------|
|-----------4--------|-----------------------*||*------------0--0--4--0--|
|--2-----------------|-----------------------*||*--2------2--------------|
|--------------------|--0--0--0----3----2-----||-------------------------|


                        4x     C - Instrumental                      2x
|-----------------------||---------------------|---------------------||
|----------0-----------*||*--------------------|-----------5-------*||
|-------2--------------*||*--2--------5--------|--3-----------------*||
|--3----------2---------||---------------------|---------------------||



|--------------------|--------------------------|--------------------|
|--------------------|--------------------------|--------------------|
|--2--------5--------|--3-------------3---------|--2--------5--------|
|--------------------|-----------3---------3----|--------------------|


                                            A - Instrumental
|--------------------|--------------------|--------------------|
|-----------5-------|--------------------|--------------------|
|--3-----------------|--2--------5--------|--------------------|
|--------------------|--------------------|--3--------2--------|



|---------------------|---------------------|--------------------|
|*--------------------|---------------------|-----------4--------|
|*--2-----------------|----------------1----|--2-----------------|
|------------2--------|--0--------2---------|--------------------|


                         4x    C                                      2x
|------------------------||---------------------|---------------------||
|-----------------------*||*--------------------|-----------5-------*||
|-----------------------*||*--2--------5--------|--3-----------------*||
|--0--0--0----3----2-----||---------------------|---------------------||



|--------------------|--------------------------|--------------------|
|--------------------|--------------------------|--------------------|
|--2--------5--------|--3-------------3---------|--2--------5--------|
|--------------------|-----------3---------3----|--------------------|


                                            A - Verso
|--------------------|--------------------|--------------------|
|-----------5-------|--------------------|--------------------|
|--3-----------------|--2--------5--------|--------------------|
|--------------------|--------------------|--3--------2--------|



|---------------------|---------------------|--------------------|
|*--------------------|---------------------|-----------4--------|
|*--2-----------------|----------------1----|--2-----------------|
|------------2--------|--0--------2---------|--------------------|


                         2x   B                                             4x
|------------------------||-------------------------|-----------------------||
|-----------------------*||*------------0--0--4--0--|----------0-----------*||
|-----------------------*||*--2------2--------------|-------2--------------*||
|--0--0--0----3----2-----||-------------------------|--3----------2---------||


   A
|---------------------|---------------------|--------------------|
|*--------------------|---------------------|-----------4--------|
|*--2-----------------|----------------1----|--2-----------------|
|------------2--------|--0--------2---------|--------------------|


                         2x    B                                            7x
|------------------------||-------------------------|-----------------------||
|-----------------------*||*------------0--0--4--0--|----------0-----------*||
|-----------------------*||*--2------2--------------|-------2--------------*||
|--0--0--0----3----2-----||-------------------------|--3----------2---------||



|------------------------|--------------------|-------------------||
|------------0--0--4--0--|--------------------|-------------------||
|--2------2--------------|--------------------|--2----------------||
|------------------------|--3--------2--------|-------------------||



Espero que les guste.... cualquier cosa-----> Kmi_lbew@hotmail.com

Fuente original ATAME [www.atame.org]
Colaborador original: Camila [kmi_lbew@hotmail.com]

Fuente: tusacordes.com