a b c d e f g h i j k l m n o p q r s t u v w x y z 0-9

La Bestia Pop

Patricio Rey Y Sus Redonditos De Ricota

			
guitarra:
intro: Sim   FA#m   MIm  Sib  Sim
e|----2--2---2--2--0--0--6---7----|
B|----3--3---2--2--0--0--6---7----|
G|----4--4---2--2--0--0--6---7----|X4
D|--------------------------------|
A|--------------------------------|
E|--------------------------------|

BAJO:                      
G|-----|--------------|----------------|---|
D|-----|--------------|----------4-----|-X2|
A|-----|-2----------|----1-2-------|---|
E|-3-2-|-----2--0-0-|--2---------0-0-|---|


SAXO:
e|--2--2--2--2--2--2--0--0--------|
B|--------------------------------|
G|--------------------------------|X4
D|--------------------------------|
A|--------------------------------|
E|--------------------------------|


VERSO:1

BAJO:                     
G||--------------|----------------|-----|--------------|----------------|
D||--------------|----------4-----|-----|--------------|----------4-----|
A||-2----------|----1-2-------|-----|-2----------|----1-2-------|
E||-----2--0-0-|--2---------0-0-|-3-2-|-----2--0-0-|--2---------0-0-|

guitarra:
intro: Sim   FA#m   MIm  Sib  Sim
e|----2--2---2--2--0--0--6---7----|
B|----3--3---2--2--0--0--6---7----|
G|----4--4---2--2--0--0--6---7----|X4
D|--------------------------------|
A|--------------------------------|
E|--------------------------------|


Mi héroe es, la gran bestia po
que enciende en sueños, la vigilia
que antes que cuente diez, dormira.


ESTRIBILLO 1:
GUITARRA:
    Sim         SOL      FA#         Sim         Sol     FA#
e|-----7~-|----------|----------|-----7~-|--3---|--2---||
B|-----7~-|--------3-|--------2-|-----7~-|--3---|--2---||
G|---7------|------4---|------3---|---7------|--4---|--3---||X2
D|-9--------|----5-----|----4-----|-9--------|--5---|--4---||
A|----------|----------|----------|----------|--------|--------||
E|----------|-3--------|-2--------|----------|--------|--------||

BAJO:
G|---------------------------||
D|----------4----------------||X4
A|-2-2--5-5---5-----2-----1--||
E|--------------3-3---2-2----||


  SIm         SOL  FA#      SIm      SOL  FA#
A brillar mi amor, vamos a brillar mi amor
   SIm         SOL  FA#      SIm      SOL FA#
A brillar mi amor, vamos a brillar mi amor.


VERSO 2: Igual

Mi amigo esta, groggie sin destilar
pero yo se, que hay caballos que
se mueren potros sin galopar.


ESTRIBILLO 2: Igual

  SIm         SOL  FA#      SIm      SOL  FA#
 A brillar mi amor, vamos a brillar mi amor
   SIm         SOL  FA#      SIm      SOL FA#
 A brillar mi amor, vamos a brillar mi amor.


SOLO DE SAXO:
GUITARRA algo asi

      Sim   FA#m   MIm  FA#  Sim
e|----2--2---2--2--0--0--2---7----|
B|----3--3---2--2--0--0--2---7----|
G|----4--4---2--2--0--0--2---7----|X4
D|--------------------------------|
A|--------------------------------|
E|--------------------------------|

BAJO:
G|----------------|----------------|----------------------|----------------|-------------------|
D|------------5-|------------5-|----------------------|------------5-|-------------------|
A|2-5-3-----|-2-5-3----|--2-5-3--3------|-2-5-3----|-2-5-5-----2---|
E|----------------|----------------|-----------------3--0-|----------------|-----------3-3---2-|

SAXO y guitarra 2:

e|-7-----------6-7---|-------6-7---|---------------|--------------|
B|----7------8-----7-|-----8-----7-|-------------7-|--------------|
G|---------8-9---------|-8-9---------|-8-9-----------|-8-9----------|
D|---------------------|-------------|-----10-7-9----|-----10-7-9-|
A|---------------------|-------------|---------------|--------------|
E|---------------------|-------------|---------------|--------------|

SOLO DE GUITARRA:

BAJO:                     
G||--------------|----------------|-----|--------------|----------------|
D||--------------|----------4-----|-----|--------------|----------4-----|
A||-2----------|----1-2-------|-----|-2----------|----1-2-------|X2
E||-----2--0-0-|--2---------0-0-|-3-2-|-----2--0-0-|--2---------0-0-|

guitarra 2:
intro: Sim   FA#m   MIm  Sib  Sim
e|----2--2---2--2--0--0--6---7----|
B|----3--3---2--2--0--0--6---7----|
G|----4--4---2--2--0--0--6---7----|X8
D|--------------------------------|
A|--------------------------------|
E|--------------------------------|
 
GUItarra Solo
e|--7~--5-5-5---5---------|------------------------2~-|--5-5-5---5------------|-------------|
B|--7~--------7--7--------|-------2-3-5-3-2------3------|--------7---7-----3~-|2-3-5-3-2-0--|
G|--7~--------------4-----|---2-4-----------4~--------|--------------4--------|------------3|
D|----------------------4-|-4---------------------------|----------------4------|-------------|
A|--------------------------|-----------------------------|-----------------------|-------------|
E|--------------------------|-----------------------------|-----------------------|-------------|

e|-7~---5-5--------|---------2-|/--10p9------------------10~|9-10-12-12/14-14~|-12-10-9
B|-7~-------7-3~-|-----3-5---|--------12p10--10-12-12~------|-----------------------|--------
G|-7~--------------|-2-4-------|------------------------------|-----------------------|--------
D|-------------------|-----------|------------------------------|-----------------------|--------
A|-------------------|-----------|------------------------------|-----------------------|--------
E|-------------------|-----------|------------------------------|-----------------------|--------

------------|
-12--11-----|
------------|
------------|
------------|
------------|


REPITE SOLO DE SAXO:


BAJO:
G|----------------|----------------|----------------------|----------------|-------------------|
D|------------5-|------------5-|----------------------|------------5-|-------------------|
A|2-5-3-----|-2-5-3----|--2-5-3--3------|-2-5-3----|-2-5-5-----2---|
E|----------------|----------------|-----------------3--0-|----------------|-----------3-3---2-|

SAXO y guitarra 2:

e|-7-----------6-7---|-------6-7---|---------------|--------------|
B|----7------8-----7-|-----8-----7-|-------------7-|--------------|
G|---------8-9---------|-8-9---------|-8-9-----------|-8-9----------|
D|---------------------|-------------|-----10-7-9----|-----10-7-9-|
A|---------------------|-------------|---------------|--------------|
E|---------------------|-------------|---------------|--------------|



VERSO 3:

 Voy a bailar, el rock del rico Luna Park
 y atomizar la butaca y brillar
 como mi héroe "La gran bestia pop"

ESTRIBILLO 3:

  SIm         SOL  FA#      SIm      SOL  FA#
 A brillar mi amor, vamos a brillar mi amor
   SIm         SOL  FA#      SIm      SOL FA#
 A brillar mi amor, vamos a brillar mi amor.

VERSO 4:

 Mi héroe es, la gran bestia po
 que enciende en sueños, la vigilia
 que antes que cuente diez, dormira.


ESTRIBILLO 4:

  SIm         SOL  FA#      SIm      SOL  FA#
 A brillar mi amor, vamos a brillar mi amor
   SIm         SOL  FA#      SIm      SOL FA#
 A brillar mi amor, vamos a brillar mi amor.


FINAL:

BAJO:
G|---------------------------|---|----------------|---|---|----|
D|----------4----------------|-x3|----------4-----|---|---|----|
A|-2-2--5-5---5-----2-----1--|---|-2-2--5-5---5---|---|---|-2|
E|--------------3-3---2-2----|---|----------------|-3-|-2-|----|

GUITARRA: [sim- SOL- FA#- SIm] X3   [SIm ]         sol-fa# sim
                                                 |-3-|-2-|-7--|
                                                 |-3-|-2-|-7--|
                                                 |-4-|-3-|-7--|
                                                 |-5-|-4-|----|
                                                 |---|---|----|
                                                 |---|---|----|
SAXO:
e|-----------------|------|-----------|--------------------|------7-5~-|------------|---------|
B|------------5-5--|----

Fuente original ATAME [www.atame.org]
Colaborador original: Guille [elguille665@hotmail.com]

Fuente: tusacordes.com