a b c d e f g h i j k l m n o p q r s t u v w x y z 0-9

La Bestia Pop

Patricio Rey Y Sus Redonditos De Ricota

			
La canción arranca con un intro de bateria, 
y al cabo de un par de compases, entra el bajo, 
con una entrada muy simple:
E-3-2-//
A-----//
D-----//
G-----//

Despues, durante las estrofas, la progresión es SI-MI-FA#, 
y el bajo es el siguiente:

E---2-0-3--------0-3-2--//---2-0-3--------0-3-3-2--//
A-2-------1-2-----------//-2-------1-2------------//
D-------------4---------//-------------4----------//
G-----------------------//------------------------//

En la parte del estribillo a brillar mi amor... 
la progresion es SI-SOL-FA#, y el bajo pasa a ser:
E----------------3---2--//
A-2--2-5-5---5-----5---//
D----------4-----------//
G----------------------//

La canción es mut fácil, espero haberles sido útil. 
Por favor, si tienen cualquier tipo de duda no dejen 
de consultarme a mi mail. 
Aparte, les pido que envien canciones para bajo 
de grupos argentinos, porque no hay muchos.

Fuente original ATAME [www.atame.org]
Colaborador original: zippoluzbel [zippoluzbel@yahoo.com]

Fuente: tusacordes.com