a b c d e f g h i j k l m n o p q r s t u v w x y z 0-9

Ji Ji Ji

Patricio Rey Y Sus Redonditos De Ricota

			
Solo de 
Solo de Sky:
Parte a), la repite dos veces.
e-----------------------------------------------------
b--------------8-10-10-10-8---------------------------
g-------7-9-10--------------10-9-7~~-7-7-7-7/6-6-7-9~~
d-----7-----------------------------------------------
a-----------------------------------------------------
E-----------------------------------------------------

e---------------------------------------------------------
b-8-6-5-8-6-5-8-6-5-8-6-5-8-6-5-8-6-5---------5-6-5-------
g--------------------------------------7--6-7-------7-6-7-
d---------------------------------------------------------
a---------------------------------------------------------
E---------------------------------------------------------

Parte B)
e------------------------------------------
b------------------------------------------
g-10/12-12~-12~-10-9h10p9------------------
d-------------------------10-10/12-10~-----
a------------------------------------------
E------------------------------------------

e---------------------------10-----10-10h12~
b------------------------10----13b----------
g----------------10-12b---------------------
d-12-10-12~--12-----------------------------
a-------------------------------------------
E-------------------------------------------

e-13h15p13~-15-13~-12h13p12-----------------
b---------------------------15-13-13/15-12~-
g-------------------------------------------
d-------------------------------------------
a-------------------------------------------
E-------------------------------------------

e-------------------------------------10---------------------------------
b--------------10-------------------10---13-10---------------------------
g----10-12-13-----13-12-----10-12b-------------12b---12p10-------10------
d-12---------------------12--------------------------------12-10----12~--
a------------------------------------------------------------------------
E------------------------------------------------------------------------

e-15b~~-15b-15-15b-15b-15-13-13h15~-13------------20b~-20b~-20~-
b---------------------------------------15~----18---------------
g-------------------------------------------19------------------
d---------------------------------------------------------------
a---------------------------------------------------------------
E---------------------------------------------------------------


Parte a), la repite dos veces.
e-----------------------------------------------------
b--------------8-10-10-10-8---------------------------
g-------7-9-10--------------10-9-7~~-7-7-7-7/6-6-7-9~~
d-----7-----------------------------------------------
a-----------------------------------------------------
E-----------------------------------------------------

e---------------------------------------------------------
b-8-6-5-8-6-5-8-6-5-8-6-5-8-6-5-8-6-5---------5-6-5-------
g--------------------------------------7--6-7-------7-6-7-
d---------------------------------------------------------
a---------------------------------------------------------
E---------------------------------------------------------

Parte B)
e------------------------------------------
b------------------------------------------
g-10/12-12~-12~-10-9h10p9------------------
d-------------------------10-10/12-10~-----
a------------------------------------------
E------------------------------------------

e---------------------------10-----10-10h12~
b------------------------10----13b----------
g----------------10-12b---------------------
d-12-10-12~--12-----------------------------
a-------------------------------------------
E-------------------------------------------

e-13h15p13~-15-13~-12h13p12-----------------
b---------------------------15-13-13/15-12~-
g-------------------------------------------
d-------------------------------------------
a-------------------------------------------
E-------------------------------------------

e-------------------------------------10---------------------------------
b--------------10-------------------10---13-10---------------------------
g----10-12-13-----13-12-----10-12b-------------12b---12p10-------10------
d-12---------------------12--------------------------------12-10----12~--
a------------------------------------------------------------------------
E------------------------------------------------------------------------

e-15b~~-15b-15-15b-15b-15-13-13h15~-13------------20b~-20b~-20~-
b---------------------------------------15~----18---------------
g-------------------------------------------19------------------
d---------------------------------------------------------------
a---------------------------------------------------------------
E---------------------------------------------------------------

Fuente: tusacordes.com