a b c d e f g h i j k l m n o p q r s t u v w x y z 0-9

Ji Ji Ji

Patricio Rey Y Sus Redonditos De Ricota

			
e----------1--------1--------3--------3--------3--------3--------1---------1--------||
b----------3--------3--------2--------2--------2--------2--------3---------3--------||
g----------2--------2--------0--------0--------0--------0--------2---------2--------||
d---000000-0-000000-0-222222---222222---222222---222222---000000-0--000000-0--------||x2
a-----------------------------------------------------------------------------------||
E-----------------------------------------------------------------------------------||

1║ Frase de Guitarra del estribillo:      2¬ Frase de guitarra del estribillo
e--3-1-------1-------||                   e--3-1-------1------------||
b------3-1-3---3-----||                   b------3-1-3---3--1-3-1-3-||
g--------------------||                   g-------------------------||
d--------------------||                   d-------------------------||
a--------------------||                   a-------------------------||
E--------------------||                   E-------------------------||

Sigue haciendo la Intro

           Dm      Dm              A7/G     A7/G
En este film, velado en blanca noche
      A7/G    A7/G         Dm    Dm
El hijo tenaz de tu enemigo
          Dm    Dm          A7/G     A7/G
El muy verdugo cena distinguido
     A7/G        A7/G             Dm      Dm
Una noche de cristal que se hace a˝icos

F             C
 No lo so˝Ú eeeeeee!
Bb                              Dm frase de guitarra1
 se enderezˇ y brindˇ a tu suerte
F             C
 No lo so˝Ú eeeeeee!
Bb                          Dm frase de guitarra 1
 y se ofreciˇ mejor que nunca 
Bb                  F
 no mires por favor, y no prendas la luz
Gm                   A7
 la imagen te desfigurˇ


Sigue haciendo la Intro

        Dm         Dm           A7/G    A7/G
Este film da una imagen exquisita
     A7/G           A7/G              Dm   Dm
esos chicos son como bombas peque˝itas
          Dm         Dm              A7/G    A7/G
el mejor camino a la cueva del perico
      A7/G         A7/G             Dm   Dm 
para tipos que no duermen por la noche

F            C
No lo so˝Ú eeeeeee!
Bb                        Dm   frase de guitarra 1
ibas corriendo a la deriva 
F            C
No lo so˝Ú eeeeeee!
Bb                      Dm   frase de guitarra 1)
Los ojos ciegos bien abiertos (
Bb                          F
no mires por favor, y no prendas la luz
Gm                   A7
la imagen te desfigurˇ

Dm  Gm  A7Traste V   x4

Solo:  
e---------------------------------------------------------------------------
b---------6-8-10-10-10-10-8-6/8/6-5--------------------5---8-6-5-8-6-5-8-6-5
g-----6-7---------------------------7-7-7-7-7-7-6-6-7-----------------------
d---7-----------------------------------------------------------------------
a---------------------------------------------------------------------------
E---------------------------------------------------------------------------

e---------------------------------------||
b-8-6-5-8-6-5-8-6-5--------5-6-5--------||
g-------------------7--6-7-------7-6-7--||
d---------------------------------------||
a---------------------------------------||
E---------------------------------------||

e-------------------------------------------5-7-8-10-12--13/15/13--15--13-12
b--/6-6--8-6-5-6-5--------------------5-6-8---------------------------------
g------------------5--5-7-5--5-7-5-7----------------------------------------
d---------------------------------------------------------------------------
a---------------------------------------------------------------------------
E---------------------------------------------------------------------------

e-13-12---------------------------------------------------------------------
b-------13-13-15-13---------------------------------------15-13-------------
g------------------------------12-14-12-------------12-14-------14-12/14/12-
d---------------------12-14-15----------15-12-14-15-------------------------
a---------------------------------------------------------------------------
E---------------------------------------------------------------------------

e--------------15^17--15^17---15^17--15^17--15--15^17--15^17---15^17--
b---------------------------------------------------------------------
g---------------------------------------------------------------------
d15-14-15-12----------------------------------------------------------
a---------------------------------------------------------------------
E---------------------------------------------------------------------

e--15^17^15-15---13-------21-21^23-21^23-21---||
b--------------------15-----------------------||
g---------------------------------------------||
d---------------------------------------------||
a---------------------------------------------||
E---------------------------------------------||

Sigue haciendo la Intro

      Dm       Dm              A7/G    A7/G
El montaje final es muy curioso
       A7/G        A7/G          Dm    Dm
es en verdad realmente entretenido
         Dm        Dm               A7/G    A7/G
Vas en la oscura multitud desprevenido
       A7/G        A7/G           Dm     Dm
tiranizando a los que te han querido

F              C
No lo so˝Ú eeeeeeee!
Bb                            Dm   frase de guitarra 2
se enderezˇ y brindˇ a tu suerte 
F              C
No lo so˝Ú eeeeeeee!
Bb                       Dm   frase de guitarra 2
y se ofreciˇ mejor que nunca 
F              C
No lo so˝Ú eeeeeeee!
Bb                      Dm   frase de guitarra 2
ibas corriendo a la deriva 
F              C
No lo so˝Ú eeeeeeee!
Bb                      Dm   frase de guitarra 2
los ojos ciegos bien abiertos
Bb                  F
No mires por favor, y no prendas la luz
Gm                  A7
La imagen te desfigurˇ

Fuente: tusacordes.com