a b c d e f g h i j k l m n o p q r s t u v w x y z 0-9

Ji Ji Ji

Patricio Rey Y Sus Redonditos De Ricota

			
CORRECION: Les estan pifiando, vi transcripciones desastrosas, es la primera que mando, 
ya que me dio demaciada bronca ver semejante tema mal pasado.



Base: Dm-A7-Edism


         Dm      Dm               A7      A7
En este film velado en blanca noche
 Edism   Edism           Dm
el hijo tenas de tu enemigo
   Dm          Dm           A7        A7
el muy verdugo cena distinguido
Edism             Edism               Dm
una noche de cristal que se hace añicos


                                    Punteito:
Estribillo: F-C-A#-Dm
F           C                     -------------------
No lo soñe hiiieeee               --6-5----------------
A#                       Dm       ------7-5---5-6--------
se endereso y brindo a tu suerte  ----------7---------
F           C                     -------------------
No lo soñe hiiieeee               -------------------
A#                    Dm
y se ofrecio mejor que nunca
A#                 F
No mires por favor
                   Gm
y no prendas la luz
                    A7
la imagen te desfiguro

Antes del solo: Dm-Gm-A


Primer solo:

-----------------------------------------------------------------------------------------------------------
--5-6-8--10-10-10-8-10-8-6-5----------------865-865-865-865-865-865---------5-6-5--------------------------
-7--------------------------7-7-7-7-6-6-7-5-------------------------7-7-6-7-------7-6-7--------------------
7----------------------------------------------------------------------------------------------------------
-----------------------------------------------------------------------------------------------------------
-----------------------------------------------------------------------------------------------------------


Segundo solo:

--------------------------------------------------------------13-14-13-15-13-12-13-12--------------------------------------
-------------------------------------------------12-10-12-15^------------------------13-13-15-13-------------10------------
-10-12-10-9-10-9------------------------------------------------------------------------------------10-12-13---13-12-10----
----------------10-10-12-10--------------10-12-12------------------------------------------------12---------------------12-
----------------------------12-1010-1212-----------------------------------------------------------------------------------
---------------------------------------------------------------------------------------------------------------------------

-------------11--------------------------15^-15^--12--15^-15^--12-^15^-12------------12----19^^^^^-------------------------
----------------11-12----11------------------------------------------------15-----15---------------------------------------
-10-12-10-10----------12----12-11----------------------------------------------16------------------------------------------
----------------------------------12---------------------------------------------------------------------------------------
---------------------------------------------------------------------------------------------------------------------------
---------------------------------------------------------------------------------------------------------------------------




Eso es todo, no quiero quejas porque no las hay, ante la duda dborroni82@hotmail.com

Fuente original ATAME [www.atame.org]
Colaborador original: Diego [dborroni82@hotmail.com]

Fuente: tusacordes.com