a b c d e f g h i j k l m n o p q r s t u v w x y z 0-9

Ji Ji Ji

Patricio Rey Y Sus Redonditos De Ricota

B
			
Parte 2 del solo :     "Skay" Bellinson 1°guitarra-     [Con Distorción]

E|-------------------------------------|-----------------|---
B|-------------------------------------|-----------------|---
G|----10~--12-10-9h10p9----------------|-----------------|---
D|-----------------------10-10-12-10~--|--10-12-10-12~---|---
A|-------------------------------------|-----------------|---
E|-------------------------------------|-----------------|---


-----------------10--------10-12~-13h15-13~|-15-13-12h13-12--------------|
--------------10----13---------------------|----------------13-13-15-13--|
----10-12B-------------------------------|-----------------------------|
-12----------------------------------------|-----------------------------|
-------------------------------------------|-----------------------------|
-------------------------------------------|-----------------------------|


------------------------|--------------10---------------------------------|
------------10----------|-----------------13-10---------------------------|
----10-13------13-12-10-|----10-12br----------12--12br-10-------10--------|
-12---------------------|-12------------------------------12-10----12~----|
------------------------|-------------------------------------------------|
------------------------|-------------------------------------------------|


-16b16b-~~~--|-16b-15----16b16b-|--16b-15----15-|-15--13------------------|
---------------|--------18--------|---------18----|-----------15~~----------|
---------------|------------------|---------------|---------------------------|
---------------|------------------|---------------|---------------------------|
---------------|------------------|---------------|---------------------------|
---------------|------------------|---------------|---------------------------|

           mantiene estirada
------13--21b21´21´21´21´-21b---21-/-|
---15--------------------------------|
-------------------------------------|
-------------------------------------|
-------------------------------------|
-------------------------------------|



correcion de la intrO:
*"Skay" Bellinson guitarra

           REm      REm      Sol6     Sol6    DO#Dim   DO#Dim   REm       REm
e---------1--------1|-------3--------3|-------3--------3|-------1---------1-----|
B---------3--------3|-------3--------3|-------2--------2|-------3---------3-----|
G---------2--------2|-------3--------3|-------3--------3|-------2---------2-----|
D--000000-0-000000-0|222222---222222--|222222-2-222222-2|000000-0--000000-0-----|
A-------------------|-----------------|-----------------|-----------------------|
E-------------------|-----------------|-----------------|-----------------------|
  P.M....   .....    ......   ......   ......   ......   ......    ......

Fuente original ATAME [www.atame.org]
Colaborador original: Guille [elguille665@hotmail.com]

Fuente: tusacordes.com