a b c d e f g h i j k l m n o p q r s t u v w x y z 0-9

Ji Ji Ji

Patricio Rey Y Sus Redonditos De Ricota

			
Intro: 
              Dm              Lam7             C#-            Dm
E|-------------5-|-------------7-|---------------|-------------5-|
B|-------------6-|-------------8-|-------------5-|-------------6-|
G|-------------7-|-------------7-|-------------6-|-------------7-|
D|-------------7-|-------------9-|-------------5-|-------------7-|
A|-5-5-5-5-5-5-5-|-7-7-7-7-7-7-7-|-4-4-4-4-4-4-4-|-5-5-5-5-5-5-5-|
E|-------------5-|-------------7-|---------------|-------------5-|
       x2        |      x2       |      x2       |      x2       |
 
Riff 1                  Riff 2
E|-1-0-----------|      E|-1-0--------------------|      
B|-----3-1---1-3-|      B|-----3-1---1-3--1-3-1-3-|      
G|---------2-----|      G|---------2--------------|      
D|---------------|      D|------------------------|      
A|---------------|      A|------------------------|      
E|---------------|      E|------------------------|
 
Versos: con Base de Intro
 
Dm                                  Lam7  
 En este film, velado en blanca noche
C#-                        Dm
 El hijo tenaz de tu enemigo
El muy verdugo cena distinguido
Una noche de cristal que se hace a˝icos
 
Estribillo
 
F             C
 No lo so˝Ú eeeeeee!
Bb                             Dm Riff 1
 se enderezˇ y brindˇ a tu suerte
F              C
 No lo so˝Ú eeeeeee!
Bb                          Dm Riff 1
 y se ofreciˇ mejor que nunca
Bb                  F
 no mires por favor, y no prendas la luz
Gm                   A7
 la imagen te desfigurˇ
 
Este film da una imagen exquisita
esos chicos son como bombas peque˝itas
el mejor camino a la cueva del perico
para tipos que no duermen por la noche
 




Estribillo
 
F              C
 No lo so˝Ú eeeeeee!
Bb                         Dm Riff 1
 ibas corriendo a la deriva
F              C
 No lo so˝Ú eeeeeee!
Bb                       Dm Riff 1
 Los ojos ciegos bien abiertos
Bb                  F
 no mires por favor, y no prendas la luz
Gm                   A7
 la imagen te desfigurˇ
 
Dm Gm A7 x 4
 
Solo:
                                                           
E|-----------------------|-------------------------|       |
B|----------8-10-10-10-8-|-------------------------|       |
G|---7-9-10--------------|-10-9-7--7-7-7-7-6-6-7-9-|       |
D|-7---------------------|-------------------------|       |
A|-----------------------|-------------------------|       |
E|-----------------------|-------------------------|       | x 2
                                                           |
E|-------------------------------------------------------| |
B|-8-6---8-6-8-6---8-6-8-6---8-6-------------------------| |
G|-----9---------9---------9-----9-7---7-9-10-9-7-6-7----| | 
D|-----------------------------------7-------------------| | 
A|-------------------------------------------------------| | 
E|-------------------------------------------------------| |
                                                           /
E|---------------------------------|--------------|
B|---------------------------------|--------------|
G|-7/10~-12-10-9h10p9--------------|--------------|
D|--------------------10-10-12-10~-|-10-12-10-12~-|
A|---------------------------------|--------------|
E|---------------------------------|--------------|

E|-----------------10--------10-12v-13h15p13-|-15-13-12h13p12-------------|
B|--------------10----13-15------------------|----------------13-13-15-13-|
G|----10-12-14-------------------------------|----------------------------|
D|-12----------------------------------------|----------------------------|
A|-------------------------------------------|----------------------------|
E|-------------------------------------------|----------------------------|

E|-----------------------|--------------10---------------------------------|
B|-----------------------|-----------------13-10---------------------------|
G|----10-12-12^-12-10----|----10-12-12^----------12-12^-12-10----10-12-----|
D|-12-----------------12-|-12---------------------------------12-------12~-|
A|-----------------------|-------------------------------------------------|
E|-----------------------|-------------------------------------------------|



E|-15^-15^-15-15^-15^-15^-|-15-15^-15^-|-15-13-----|
B|------------------------|------------|-------15--|
G|------------------------|------------|-----------|
D|------------------------|------------|-----------|
A|------------------------|------------|-----------|
E|------------------------|------------|-----------|

E|-------20-20^-20-20^-20-20^-20-|
B|----18-------------------------|
G|-19----------------------------|
D|-------------------------------|
A|-------------------------------|
E|-------------------------------|
 
El montaje final es muy curioso      
es en verdad realmente entretenido
Vas en la oscura multitud desprevenido
tiranizando a los que te han querido
 
F              C
 No lo so˝Ú eeeeeeee!
Bb                             Dm Riff 2
 se enderezˇ y brindˇ a tu suerte
F              C
 No lo so˝Ú eeeeeeee!
Bb                        Dm Riff 2
 y se ofreciˇ mejor que nunca
F              C
 No lo so˝Ú eeeeeeee!
Bb                       Dm Riff 2
 ibas corriendo a la deriva
F              C
 No lo so˝Ú eeeeeeee!
Bb                       Dm Riff 2
 los ojos ciegos bien abiertos
Bb                  F
 No mires por favor, y no prendas la luz
Gm                   A7
 La imagen te desfigurˇ
 
Riff 3:                                         
E|--------------------------------------------- | 
B|--------------------------------------------- |
G|-7-9-7-10-9-7--5-7-5-9-7-5--4-----4-7-5-4-2-- |
D|------------------------------2-6------------ | x 2
A|--------------------------------------------- | 
E|--------------------------------------------- | 
                                                /      
Con Riff 3

Oiga sodorova..
vodka de chernobil
pobre la olga! crepo!

Fuente original ATAME [www.atame.org]
Colaborador original: Pablo Szwedak [pablo_szwedak@ciudad.com.ar]

Fuente: tusacordes.com