a b c d e f g h i j k l m n o p q r s t u v w x y z 0-9

Ji Ji Ji

Patricio Rey Y Sus Redonditos De Ricota

A
B
C
			
INTRO :  [x2]



  *Eduardo Skay Bellinson guitarra        **notas inventadas ...ja

           REm      REm      Sol6     Sol6    DO#Dim   DO#Dim   REm       REm
e---------1--------1|-------3--------3|-------3--------3|-------1---------1-----|
B---------3--------3|-------3--------3|-------2--------2|-------3---------3-----|
G---------2--------2|-------3--------3|-------3--------3|-------2---------2-----|
D--000000-0-000000-0|222222---222222--|222222-2-222222-2|000000-0--000000-0-----|
A-------------------|-----------------|-----------------|-----------------------|
E-------------------|-----------------|-----------------|-----------------------|
  P.M....   .....    ......   ......   ......   ......   ......    ......

  *guitarra 2 sin distorcion    
               
           REm      REm     Sol6     Sol6     DO#Dim   DO#Dim   REm       REm
e---------1--------1|-------3--------3|-------3--------3|-------1---------1-----|
B---------3--------3|-------3--------3|-------2--------2|-------3---------3-----|
G---------2--------2|-------3--------3|-------3--------3|-------2---------2-----|
D---------0--------0|-------2--------2|-------2--------2|-------0---------0-----|
A-------------------|-----------------|-----------------|-----------------------|
E-------------------|-----------------|-----------------|-----------------------|
                                                                                             
  * Semilla Bucciarelli bajo

G-------------------|-----------------|-----------------|-----------------------|
D-------------------|-----------------|-----------------|-----------------------|  
A--------5------0-5-|------7------0-7-|------4------0-4-|------5------0-5----0--|
E-------------------|-----------------|-----------------|-----------------------|




VERSO:


        las dos guitarras y el bajo hacen lo mismo que en la intro
        
         REm       REm            SOL 6       SOL 6
En este film, velado en blanca noche
      DO#Dim   DO#Dim       REm       REm
El hijo tenaz de tu enemigo
El muy verdugo cena distinguido
Una noche de cristal que se hace añicos.



ESTRIBILLO:


*BAJO A
           FA          FA          DO
G|--------|----------|-----------|-----------------------------|
D|--------|----------|-----------|-----------------------------|
A|---5-/0-|----------|-----------|-3--3--3----3---3---3--------|
E|--------|1-1-1-1-1-|-1-1-1--1-3|-----------------------------|

 *Skay Bellinson A                       [Con Distorción]
            FA5        FA5         DO5     
e--------|-----------|------------|----------------------------|
B--------|-----------|------------|----------------------------|
G--------|-----------|------------|-5---5----------------------|
D--0-0---|3-x-3---x--|-3-x-3---x--|-5-x-5---x--7^5--7-5--------|
A------0-|3-x-3---x--|-3-x-3---x--|-3-x-3---x--3----3-3--------|
E--------|1-x-1---x--|-1-x-1---x--|----------------------------|

                     FA5            DO5
          A   No lo soñé...  eeh- ieeeeh!...

*BAJO B
         SIb                     RE
G|-----------------------------|----------------------------------|
D|-----------------------------|----------------------------------|
A|-1----1----1----1----1-----1/|-5---5---5---5---5--5---5/--------|
E|-----------------------------|----------------------------------|
          SIb5                     RE5 + Riff de Estribillo
*B  se enderezó y brindó a tu suerte...

e|-----------------------------|----------------------------------| *B
B|-----------------------------|----------------------------------|Skay
G|-x-3-x--3---x---3-x--3---x---|-7-x--7-x--7-x-7-x----------------|Bellinson
D|-x-3-x--3---x---3-x--3---x---|-7-x--7-x--7-x-7-x---7-7----------|guitarra
A|-x-1-x--1---x---1-x--1---x--/|-5-x--5-x--5-x-5-x---5-5-0--------|
E|-----------------------------|----------------------------------|

*Guitarra 2 B         Sobre : RE5
e------------------------------|-----1-0--------------------------|
B------------------------------|---------3-1---1-3~~~~~~~~~~------|  Riff
G-x-3-x--3---x----3-x-3------|-------------2--------------------|   de
D-x-3-x--3---x----3-x-3------|----------------------------------|Estribillo
A-x-1-x--1---x----1-x-1------|----------------------------------|
E------------------------------|----------------------------------|


   
      FA5             DO5
  No lo soñé...  eeh- ieeeeh!...
     SIb5                   RE5 + Riff de Estribillo
  y se ofreció mejor que nunca... 


*BAJO C
   SIb                  FA                   SOL                    LA
G|-----------------|-----------------------|----------------------|--------------|
D|-----------------|-----------------------|----------------------|--------------|
A|-1-1-1-1-1--1-1--|-----------------------|----------------------|--------------|
E|-----------------|-3--1--1--1--1-1-1-1--1|-3-3-3-3-3-3--3--3--3-|-5-5-5-5-5-5-5|

 SIb5                    FA5                   SOL5                 LA5..
   no mires por favor, y no prendas la luz...   la imagen te desfiguróoo...

*Skay Bellinson
e------------------|-----------------------|----------------------|--------------|
B------------------|-----------------------|----------------------|--------------|  
G-3-x-3---x---3-x-3|-x---------------------|----------------------|--------------|   
D-3-x-3---x---3-x-3|-x-3-x-3---x---3-x-3--x|-5-x-5---x---5-x-5--x-|7-7-7-7-7-7777|
A-1-x-1---x---1-x-1|-x-3-x-3---x---3-x-3--x|-5-x-5---x---5-x-5--x-|7-7-7-7-7-7777|
E------------------|---1-x-1---x---1-x-1--x|-3-x-3---x---3-x-3--x-|5-5-5-5-5-5555|
  SIb5                 FA5                    SOL5                 LA5




2° VERSO:

 igual que el primero


           REm         REm             SOL 6       SOL 6
   Este film da una imagen exquisita
            DO#Dim    DO#Dim          REm       REm
esos chicos son como bombas pequeñitas
           REm       REm                SOL 6       SOL 6          
el  peor  camino a la cueva del perico
           DO#Dim    DO#Dim              REm       REm      
para tipos que  no duermen por la noche.




 2°ESTRIBILLO:

  igual que el primero

      FA5             DO5
  No lo soñé...  eeh- ieeeeh!...
     SIb5                   RE5 + Riff de Estribillo
ibas corriendo a la deriva 
    FA5             DO5
No lo soñé...  eeh- ieeeeh!...
       SIb5                   RE5 + Riff de Estribillo
Los ojos ciegos bien abiertos 
   SIb5               FA5
no mires por favor, y no prendas la luz
SOL5                 LA5  
la imagen te desfiguró..




PUENTE:



*BAJO           = Dejar sonar la nota
G|--------------|--------------|----------------|---------------------------|
D|--------------|--------------|----------------|---------------------------|
A|-5----------|5-----------|-5------------|5------------------------|
E|----3---5-|---3---5--|-----3---5--|----3--5-5-5-5-5-5-5-5-5-|

   REm-SOL- LA   REm-SOL-  LA    REm-SOL-  LA     REm-SOL-LA5 

e|--1--3-----5--|-1--3-----5---|--1---3-----5---|-1---3---------------------|
B|--3--3-----5--|-3--3-----5---|--3---3-----5---|-3---3---------------------| 
G|--2--3-----5--|-2--3-----5---|--2---3-----5---|-2---3---------------------|SKAY
D|--0--5-----7--|-0--5-----7---|--0---5-----7---|-0---5---7-7-7-7-7-7-7-7-7-|
A|-----5-----7--|----5-----7---|------5-----7---|-----5---7-7-7-7-7-7-7-7-7-|
E|-----3-----5--|----3-----5---|------3-----5---|-----3---5-5-5-5-5-5-5-5-5-|





*SOLO DE GUITARRA:

    
parte 1:      RE  bajo                    MI bajo            DO# bajo
e-------------------------------------|----------------------|-------------------|
B--------------8-10-10-10--8----------|----------------------|-8-6-5-8-6-5-8-6-5-|  
G------7-9-10----------------10-9/-7--|-7-7-7-7-6-6-7---9~~~-|-------------------|   
D---7---------------------------------|----------------------|-------------------|
A-------------------------------------|----------------------|-------------------|
E-------------------------------------|----------------------|-------------------|
                      RE bajo
--------------------|---------------------------|----|
--8-6-5-8-6-5-8-6-5-|--------5-6-5--------------|----|
--------------------|-7-6-7---------7-6-7-------|-X2-|...REPITE
--------------------|---------------------------|----|
--------------------|---------------------------|----|
--------------------|---------------------------|----|

*BAJO Mientras la guitarra toca la parte 1 :  

     RE                  MI                     DO#                 RE      X2
G|----------------------|---------------------|--------------------|-------------|
D|----------------------|---------------------|--------------------|-------------|  
A|0-5--5-5-0---5--5-5-0-|-7--7-7-0---7--7-7-0-|-4--4-4-0--4--4-4-0-|-5--5-5-0--5-|
E|----------------------|---------------------|--------------------|-------------| 


Parte 2:      Skay Bellinson 1°guitarra-     [Con Distorción]

E|-------------------------------------|-----------------|---
B|-------------------------------------|-----------------|---
G|----10~--12-10-9h10p9----------------|-----------------|---
D|-----------------------10-10-12-10~--|--10-12-10-12~---|---
A|-------------------------------------|-----------------|---
E|-------------------------------------|-----------------|---


-----------------10--------10-12~-13h15p13-|-15-13-12h13p12--------------|
--------------10----13b--------------------|----------------13-13-15-13--|
----10-12b---------------------------------|-----------------------------|
-12----------------------------------------|-----------------------------|
-------------------------------------------|-----------------------------|
-------------------------------------------|-----------------------------|


-----------------------|--------------10---------------------------------|
--------------10-------|------------10---13-10---------------------------|
----10-12-13-----13-12-|----10-12b-------------12b---12p10-------10------|
-12--------------------|-12--------------------------------12-10----12~--|
-----------------------|-------------------------------------------------|
-----------------------|-------------------------------------------------|


-1717-~~~----|-17-15-13-17-|-17-17-15-13-|-15--13------------------|
---------------|-------------|---------------|-----------15~~----------|
---------------|-------------|---------------|---------------------------|
---------------|-------------|---------------|---------------------------|
---------------|-------------|---------------|---------------------------|
---------------|-------------|---------------|---------------------------|


---------2021-21---20~-|
------18-----------------|
---19--------------------|
-------------------------|
-------------------------|
-------------------------|


*BAJO  Mientras la guitarra toca la parte 2:

      FA                    DO              SIb            RE
G|----------------------|----------------|--------------|---------------|
D|----------------------|----------------|--------------|---------------|
A|----------------------|---3-3-3--3-3-3-|-1-1-1-1-1-1/-|-5-5-5-5-5-5-5-|
E|-1-1-1--1-1--1-1-1--1-|-3--------------|--------------|---------------|

      FA                    DO              SIb            RE
G|----------------------|----------------|--------------|---------------|
D|----------------------|----------------|--------------|---------------|
A|----------------------|---3-3-3--3-3-3-|-1-1-1-1-1-1/-|-5-5-5-5-5-5-5-|
E|-1-1-1--1-1--1-1-1--1-|-3--------------|--------------|---------------|

     SIb               FA                SOL               LA
G|----------------|-------------------|-----------------|-------------------|
D|----------------|-------------------|-----------------|-------------------|
A|-1-1-1-1-1--1-1-|-------------------|-----------------|-------------------|
E|----------------|-3-1-1-1-1-1-1-1-1-|-3-3-3-3-3-3-3-3-|-5-5-5-5-5-5-5-5-5-|

2° Guitarra: 
                 Mientras la guitarra 1 y el bajo tocan la parte 2.
Con Distorción
      FA5        FA5         DO5               SIb5             RE5         
e|--------|---------|---------------------|-----------------|--------------------|
B|--------|---------|---------------------|-----------------|--------------------|
G|--------|---------|-5x-5------5x--5---x-|-3x-3--x--3x-3--x|-7x-7--x--7x-7---x--|
D|3x-3--x-|-3x-3--x-|-5x-5---x--5x--5---x-|-3x-3--x--3x-3--x|-7x-7--x--7x-7---x--|
A|3x-3--x-|-3x-3--x-|-3x-3---x--3x--3---x-|-1x-1--x--1x-1--x|-5x-5--x--5x-5---x--|
E|1x-1--x-|-1x-1--x-|---------------------|-----------------|--------------------|

      FA5        FA5         DO5               SIb5             RE5         
e|--------|---------|---------------------|-----------------|--------------------|
B|--------|---------|---------------------|-----------------|--------------------|
G|--------|---------|-5x-5------5x--5---x-|-3x-3--x--3x-3--x|-7x-7--x--7x-7---x--|
D|3x-3--x-|-3x-3--x-|-5x-5---x--5x--5---x-|-3x-3--x--3x-3--x|-7x-7--x--7x-7---x--|
A|3x-3--x-|-3x-3--x-|-3x-3---x--3x--3---x-|-1x-1--x--1x-1--x|-5x-5--x--5x-5---x--|
E|1x-1--x-|-1x-1--x-|---------------------|-----------------|--------------------|

  SIb5                 FA5                    SOL5                 LA5
e|-----------------|-----------------------|----------------------|--------------|
B|-----------------|-----------------------|----------------------|--------------|  
G|3-x-3---x---3-x-3|-x---------------------|----------------------|--------------|   
D|3-x-3---x---3-x-3|-x-3-x-3---x---3-x-3--x|-5-x-5---x---5-x-5--x-|7-7-7-7-7-7777|
A|1-x-1---x---1-x-1|-x-3-x-3---x---3-x-3--x|-5-x-5---x---5-x-5--x-|7-7-7-7-7-7777|
E|-----------------|---1-x-1---x---1-x-1--x|-3-x-3---x---3-x-3--x-|5-5-5-5-5-5555|




3° VERSO:

   (igual que los otros versos).

           REm         REm             SOL6       SOL6
El montaje final es muy curioso
            DO#Dim    DO#Dim           REm       REm       
es en verdad realmente entretenido
           REm         REm             SOL 6       SOL 6                 
Vas en la oscura multitud desprevenido
            SIbm/5    SIbm/5           REm       REm       
tiranizando a los que te han querido.




3° ESTRIBILLO:

  Es igual que los otros pero cambia el Riff del estribillo

*Guitarra 2                 SOBRE:  RE5

e------------------------------|-----1-0--------------------------|
B------------------------------|---------3-1---1-3--1---1-3~~~~~~-|  Riff 2
G-x-3-x--3---x----3-x-3------|-------------2--------2-----------|   de
D-x-3-x--3---x----3-x-3------|----------------------------------|Estribillo
A-x-1-x--1---x----1-x-1------|----------------------------------|
E------------------------------|----------------------------------|

                                     
    FA5             DO5              
  No lo soñé...  eeh- ieeeeh!...
     SIb5                   RE5 + Riff 2                            
se enderezó y brindó a tu suerte                   
   FA5             DO5                             
  No lo soñé...  eeh- ieeeeh!...                  
     SIb5                   RE5 + Riff 2                       
y se ofreció mejor que nunca 
  FA5             DO5
  No lo soñé...  eeh- ieeeeh!...
     SIb5                   RE5 + Riff 2                       
ibas corriendo a la deriva 
  FA5             DO5
  No lo soñé...  eeh- ieeeeh!...
     SIb5                   RE5 + Riff 2                       
los ojos ciegos bien abiertos
   SIb5                FA5                             *BAJO En el final
No mires por favor, y no prendas la luz            G|-------------------------|
    SOL5            LA5 + BAJO DEL FINAL         D|-------------------------|
La imagen te desfiguró.                            A|-------------------------|
                                                   E|-5-6-5-6-5-6-5-6--5------|


.......................................................................................



*FINAL:



*Guitarra 1   Guitarra criolla
   [ SOLm      |      REm      |   LA          | REm   ] Tocar rapido

E]-3-3-3-3-3-3-3|-5-5-5-5-5-5-5-|-5-5-5-5-5-5-5-|-5-5-5-5-5-5-5------|
B]-3-3-3-3-3-3-3|-6-6-6-6-6-6-6-|-5-5-5-5-5-5-5-|-6-6-6-6-6-6-6------|
G]-3-3-3-3-3-3-3|-7-7-7-7-7-7-7-|-6-6-6-6-6-6-6-|-7-7-7-7-7-7-7------|
D]-5-5-5-5-5-5-5|-7-7-7-7-7-7-7-|-7-7-7-7-7-7-7-|-7-7-7-7-7-7-7------|
A]-5------------|-5-------------|-7-------------|-5------------------|
E]-3------------|---------------|-5-------------|--------------------|

*Guitarra 2

E]--3-5-3-6-5-3-|-1-3-1-5-3-1-0-|-------0-3-1-0-|--------------------|
B]--------------|---------------|---2-----------|-3------------------|
G]--------------|---------------|-2-------------|--------------------|
D]--------------|---------------|---------------|--------------------|
A]--------------|---------------|---------------|--------------------|
E]--------------|---------------|---------------|--------------------|

----

x: nota muerta o apagada.
b: bend o en castellano: estirar cuerda
~~: efecto de vibrato 
/: slice o deslizar. 
: dejar sonar
h: hamer on
p: pul of

espero que te sirva...
tenes que escuchrla bien para poder tocarla lo mejor posible.

mandenme tabs de los redondos sobre todo los solos y los riff´s asi los saco a todos bien completos ,,,
elguille665@hotmail.com

                                                                           Fin.
.......................................................................................

Fuente original ATAME [www.atame.org]
Colaborador original: GUILLERMO [elguille665@hotmail.com]

Fuente: tusacordes.com