a b c d e f g h i j k l m n o p q r s t u v w x y z 0-9

Ji Ji Ji

Patricio Rey Y Sus Redonditos De Ricota

			
Ji ji ji						Pablo Bavarisco
Oktubre 1986
Patricio rey y sus redonditos de ricota


Intro  x2
|--------------------------------------------------|
|--------------------------------------------------|  
|-5--0-5--0-7--0-7--0-4--0-4--0-5--0-5--0----------|
|--------------------------------------------------|

En este film velado...  00:22
|--------------------------------------------------|
|--------------------------------------------------|  
|-5--0-5--0-7--0-7--0-4--0-4--0-5--0-5--0----------|
|--------------------------------------------------|

|--------------------------------------------------|
|--------------------------------------------------|  
|-5--0-5--0-7--0-7--0-4--0-4--0-5--0-5--0----------|
|--------------------------------------------------|

ESTRIBILLO
No lo soñe ehhhhhh.....  00:45
|----------------------------------------------------------------|
|----------------------------------------------------------------|
|-----------------------3-3-3--3-3-3--1-1-1-1-1-1s-5-5-5-5-5-5-5-|
|1-1-1--1-1--1-1-1--1-3------------------------------------------|

|----------------------------------------------------------------|
|----------------------------------------------------------------|
|-----------------------3-3-3--3-3-3--1-1-1-1-1-1s-5-5-5-5-5-5-5-|
|1-1-1--1-1--1-1-1--1-3------------------------------------------|

|----------------------------------------------------------------|
|----------------------------------------------------------------|
|1-1-1-1-1--1-1--------------------------------------------------|
|---------------3-1-1-1-1-1-1-1-1--3-3-3-3-3-3-3-3--5-5-5-5-5-5-5|


Este film te da una imagen....  01:20
|--------------------------------------------------|
|--------------------------------------------------|  
|-5--0-5--0-7--0-7--0-4--0-4--0-5--0-5--0----------|
|--------------------------------------------------|

|--------------------------------------------------|
|--------------------------------------------------|  
|-5--0-5--0-7--0-7--0-4--0-4--0-5--0-5--0----------|
|--------------------------------------------------|

ESTRIBILLO
No lo soñe ehhhhhh.....  01:41
|----------------------------------------------------------------|
|----------------------------------------------------------------|
|-----------------------3-3-3--3-3-3--1-1-1-1-1-1s-5-5-5-5-5-5-5-|
|1-1-1--1-1--1-1-1--1-3------------------------------------------|

|----------------------------------------------------------------|
|----------------------------------------------------------------|
|-----------------------3-3-3--3-3-3--1-1-1-1-1-1s-5-5-5-5-5-5-5-|
|1-1-1--1-1--1-1-1--1-3------------------------------------------|

|----------------------------------------------------------------|
|----------------------------------------------------------------|
|1-1-1-1-1--1-1--------------------------------------------------|
|---------------3-1-1-1-1-1-1-1-1--3-3-3-3-3-3-3-3--5-5-5-5-5-5-5|

02:16
|--------------------------------------------------|
|--------------------------------------------------|
|-5------5------5------5---------------------------|
|---3-5----3-5----3-5----3-5-5-5-5-5-5-5-5-5-5-5---|

02:36  Punteo de guitarra  x2
|--------------------------------------------------|
|--------------------------------------------------|  
|-5--5-5-0---5--5-5-0---7--7-7-0---7--7-7-0--------|
|--------------------------------------------------| 

|--------------------------------------------------|
|--------------------------------------------------|  
|4--4-4-0---4--4-4-0---5--5-5-0--5-----------------|
|--------------------------------------------------|

Solo de guitarra    03:01
|----------------------------------------------------------------|
|----------------------------------------------------------------|
|-----------------------3-3-3--3-3-3--1-1-1-1-1-1s-5-5-5-5-5-5-5-|
|1-1-1--1-1--1-1-1--1-3------------------------------------------|

|----------------------------------------------------------------|
|----------------------------------------------------------------|
|-----------------------3-3-3--3-3-3--1-1-1-1-1-1s-5-5-5-5-5-5-5-|
|1-1-1--1-1--1-1-1--1-3------------------------------------------|

|----------------------------------------------------------------|
|----------------------------------------------------------------|
|1-1-1-1-1--1-1--------------------------------------------------|
|---------------3-1-1-1-1-1-1-1-1--3-3-3-3-3-3-3-3--5-5-5-5-5-5-5|

El montaje final es muy curioso...  03:35
|--------------------------------------------------|
|--------------------------------------------------|  
|-5--0-5--0-7--0-7--0-4--0-4--0-5--0-5--0----------|
|--------------------------------------------------|

|--------------------------------------------------|
|--------------------------------------------------|  
|-5--0-5--0-7--0-7--0-4--0-4--0-5--0-5--0----------|
|--------------------------------------------------|

ESTRIBILLO
No lo soñe ehhhhhh.....  03:58
|----------------------------------------------------------------|
|----------------------------------------------------------------|
|-----------------------3-3-3--3-3-3--1-1-1-1-1-1s-5-5-5-5-5-5-5-|
|1-1-1--1-1--1-1-1--1-3------------------------------------------|

|----------------------------------------------------------------|
|----------------------------------------------------------------|
|-----------------------3-3-3--3-3-3--1-1-1-1-1-1s-5-5-5-5-5-5-5-|
|1-1-1--1-1--1-1-1--1-3------------------------------------------|

|----------------------------------------------------------------|
|----------------------------------------------------------------|
|-----------------------3-3-3--3-3-3--1-1-1-1-1-1s-5-5-5-5-5-5-5-|
|1-1-1--1-1--1-1-1--1-3------------------------------------------|

|----------------------------------------------------------------|
|----------------------------------------------------------------|
|-----------------------3-3-3--3-3-3--1-1-1-1-1-1s-5-5-5-5-5-5-5-|
|1-1-1--1-1--1-1-1--1-3------------------------------------------|

|----------------------------------------------------------------|
|----------------------------------------------------------------|
|1-1-1-1-1--1-1--------------------------------------------------|
|---------------3-1-1-1-1-1-1-1-1--3-3-3-3-3-3-3-3--5-5-5-5-5-5-5|


el final es asi       04:51
|-------------------------|
|-------------------------|
|-------------------------|
|-5-6-5-6-5-6-5-6-5-------|

Fuente original ATAME [www.atame.org]
Colaborador original: pablo bavarisco [pbavarisco@hotmail.com]

Fuente: tusacordes.com