a b c d e f g h i j k l m n o p q r s t u v w x y z 0-9

Ji Ji Ji

Patricio Rey Y Sus Redonditos De Ricota

			
Solo de Skay

Solo 2:39
Está armado sobre la escla D menor armonica

1 ----------------------------------------------------
2 -----5-6-8-10-10-10-8 H 10 P 6-5-----------------5--
3 ---7-----------------------------7-7-7-7-7-6-6-7----
4 -7--------------------------------------------------
5 ----------------------------------------------------
6 ----------------------------------------------------

1 ----------------------------------------------------
2 -8-6-5-8-6-5-8-6-5-8-6-5-8-6-5-8-6-5-------5-6-5----
3 -------------------------------------7-6-7-------7-6
4 ----------------------------------------------------
5 ----------------------------------------------------
6 ----------------------------------------------------

1 ----------------------------------------------------
2 -------5-6-8-10-10-10-8 H 10 P 6-5-----------------5
3 -7---7-----------------------------7-7-7-7-7-6-6-7--
4 ---7------------------------------------------------
5 ----------------------------------------------------
6 ----------------------------------------------------

1 ------------------------------------------------------
2 -8-6-5-8-6-5-8-6-5-8-6-5-8-6-5-8-6-5-------5-6-5------
3 -------------------------------------7-6-7-------7-6-7
4 ------------------------------------------------------
5 ------------------------------------------------------
6 ------------------------------------------------------


Este es el solo de Oktubre
no es es el solo de tito forgo

Fuente original ATAME [www.atame.org]
Colaborador original: Valen [valengigena@hotmail.com]

Fuente: tusacordes.com