a b c d e f g h i j k l m n o p q r s t u v w x y z 0-9

Honolulu

Patricio Rey Y Sus Redonditos De Ricota

			
HONOLULU inédito

  INTRO

  e-------------------------------------------------3-6-3--8-6-8-10--13~--------
  b--------------3--6~---6-8-8-6--------------3-3-3-----------------------------
  g---3----5---3-----------------7--7/5-3-3/7-----------------------------------
  d--5----5---------------------------------------------------------------------
  a-5---------------------------------------------------------------------------
  E-----------------------------------------------------------------------------

  e--13--15-15--13-10--13--10-8--5----------------------------------------------
  b---------------------------------8~------------------------------------------
  g-----------------------------------------------------------------------------
  d-----------------------------------------------------------------------------
  a---------------------------------------------3-4-5~--------------------------
  E-----------------------------------------------------------------------------


  Gm       Cm7        D7
  Linda, te extraño mucho.
  Gm        C7        D7
  Vieras que solo estoy.
  Gm     Cm7    D7          D#7  D7  Gm
  Estoy aquí atrapado en Honolulu. 

  Nativa tropieza un trago,
  Caliente quema su sol.
  Y yo estoy aquí atrapado en Honolulu. 

  Linda, se me hizo larga
  La calle internacional.
  Nena, te hago estas líneas desde Honolulu. 

  bajada 1:48
  e----------------3-3----------------------------
  b----------------3-3----------------------------
  g----------------3-3--5-5-3-5-5 estirar------- 
  d----------------5-5---------------------------- x 2
  a---5--3---------5-5----------------------------
  E--------6-5--3--3-3----------------------------

  e----------------3-3------------3-6-8-10-13-10-8-6-3~-----
  b----------------3-3---------6------------------------------
  g----------------3-3----------------------------------------
  d----------------5-5----------------------------------------
  a---5--3---------5-5----------------------------------------
  E--------6-5--3--3-3----------------------------------------
  
  Este es un temazo muuy viejooo 1978 pero demuestra bien el estilo del blues
  de los redondos, muy clasico ya que 20 años despues si a este tema le cambias la
  tonalidad a La en este caso menor es practicamente "Pool, Averna y papusa" x eso
  no escribo todos los yeites porque son todos muy parecidos, es decir agarra la escala
  pentatonica menor de Sol y podes improvisar al máximo.
  En la intro estaba casi todo bien, solo hay 2 notas q no van de la ant. pero aca 
  pongo los acordes que debido a la armonia el Cm7 suena muy parecido al C7, y se pueden
  utilizar cualquiera de los 2 pero esta me parece que es la mejor progresion, utilizando 
  los 2.

 
  Acordes 

         
        Gm  e 3   Cm7 e x   C7 ex   D7 e x   D#7 e x    
            b 3       b 2      b1      b 3       b 4
	    g 3       g 3      g3      g 5       g 6
            d 5       d 5      d2      d 4       d 5
	    a 5       a 3      a3      a 5       a 6
            E 3       E x      Ex      E x       E x


                      Facundo Madrid. Rosario, Argentina
                               VIOLENCIA ES MENTIR  
                              Aguanten los Redondos
 
  Ya que esta estamos, buscando batero para tocar todo temas de los Redondos y algunos    
  mas... Cualquier cosa dejo el mail Iguanadie@hotmail.com

Fuente original ATAME [www.atame.org]
Colaborador original: Facundo Madrid [Iguanadie@hotmail.com]

Fuente: tusacordes.com