a b c d e f g h i j k l m n o p q r s t u v w x y z 0-9

Honolulu

Patricio Rey Y Sus Redonditos De Ricota

			
INTRO
GUITARRA:
   SOLm         Dom      REm       SOLm         Dom      REm       SOLm         Dom      REm
e|------------------------------|------------------------------|-----------6----6/8--6---9b-9b|
B|-----------------------3~-6-|-6h8--8--6--------------------|----8---8--------------8--------|
G|------3~---3h5~--3--------|-----------7-5~------5-/7-|-6b---7-------8-----------------|
D|----5------5------------------|-------------------8p5--------|--------------------------------|
A|--5---------------------------|------------------------------|--------------------------------|
E|------------------------------|------------------------------|--------------------------------|
                                                           re7
e|---------------13--------------13------------|---------------------|
B|--------13-14b----14-13----13b---13----------|------------3-3-3--|
G|-12--15-----------------15----------15-12--|------------5-5-5--|
D|---------------------------------------------|------------4-4-4--|
A|---------------------------------------------|--3-4-5-----5-5-5--|
E|---------------------------------------------|---------------------|


BAJO:  SOL   DO     RE                 SOL     DO      RE       RE#      RE     SOL       RE
G|-------------------------|-----|--|-----------------------|----------------------------------|
D|-------------------------|-----|X2|-----------------------|----------------------------------|
A|---------3--3--5-----|-5---|--|---------3--3--5---|-5-6--5-3-5--------3-4-5-55-|
E|-3---3-----------------|--6--|--|-3---3---------------|----------------6--3------------|


VERSO 1:

GUITARRA : fill´s
   fill 1            fill 2           fill 3                fill 4          fill5
e|-----------------|---------------|-19b-19b-18-14-1614-|--------------|----------------------|
B|13b-15-13--------|9b--8/6--8---|----------------------|-13b-13-11----|---------3-3-3------|
G|----------15--12-|-------------7-|----------------------|-----------12-|---------5-5-5------|
D|-----------------|---------------|----------------------|--------------|---------4-4-4------|
A|-----------------|---------------|----------------------|--------------|--3-4-5--5-5-5------|
E|-----------------|---------------|----------------------|--------------|----------------------|

BAJO:
      SOL   DO     RE                 SOL     DO      RE             RE#     RE    SOL     enganc
G|--------------------------|-----|--|--------------------|---------------------------------|---|
D|--------------------------|-----|X2|--------------------|---------------------------------|---|
A|---------3--3--5---5-5|-3---|--|---------3--3--5|---5--8----6-3-5------3-4-5|---|
E|-3---3-------------5----|--6--|--|-3---3------------|-5------8-6----------6-3-------|6-5|

SOLm    DOm        REm   fill 1
"Linda, te extraño mucho
SOLm     DOm        REm  fill 2
vieras que solo estoy
SOLm    DOm      REm  fill3         fill4     fill 5  
estoy aqui atrapado            en  hono-lulu
                               RE#7   RE7   

VERSO 2:

GUITARRA : fill´s
    fill 6                   fill 7                 fill 8          fill 9
e|----------------------|-------------------------|---------------|----------------|------------|
B|----------------------|-------10b---------------|-19b-19b18-|-11-13-11-----|------------|
G|-11-13b-13b-13-11-----|----10-----12-10----10h12|---------------|------------12|12-12-121212|
D|------------------12|-12--------------12------|---------------|----------------|12-12-121212|
A|----------------------|-------------------------|---------------|----------------|------------|
E|----------------------|-------------------------|---------------|----------------|------------|

BAJO:
      SOL   DO     RE                 SOL     DO      RE             RE#     RE    SOL    
G|--------------------------|-----|--|--------------------|-------------------------------------|
D|--------------------------|-----|X2|--------------------|-------------------------------------|
A|---------3--3--5---5-5|-3---|--|---------3--3--5|---5--8----6-3-5------3-4-5-3----|
E|-3---3-------------5----|--6--|--|-3---3------------|-5------8-6----------6-3--------6-3|
    RE#    RE    SOL
G|--------------------||
D|--------------------||
A|-6----5---------||
E|------5------6-3--||


SOLm    DOm        REm  Fill 6
Nativa tropieza un trago
SOLm    DOm        REm fill 7
caerte quema su sol
SOLm    DOm        REm  fill 8       fill9  
ya estoy aqui atrapado        en hono-lulu
                               RE#7   RE7   

 RE#7   RE7  SOLm
honolulu...



SOLO DE GUITARRA  :
*****************
BAJO:          sol   sib  do              sol  sib so             sol sib do             RE#
G|-------------|-------------------------|-----------------------|-----------|-----------------|
D|-------------|-------------------------|-----------------------|-----------|-----------------|
A|--5--3-------|----1--1--3---5--3-------|---1--1--3--5--3-------|---1--1--3-|-5-3------6----|
E|-------6-5-3-|-3-----------------6-5-3-|-3---------------6-5-3-|-3---------|-----6-5---------|
     RE    SOL
G|-------------||
D|-------------||
A|-3-5-------||
E|-------6-3-||



GUITARRA solo
e|-------------|-----------------|---------------|-------------------------|-------------------|
B|-------------|-3-3-----3--5b-|--7-5----7b----|-3-3-----3--5b--3-5~-|-------------------|
G|-------------|-3-3--5--3--5b-|--7-5-------5~-|-3-3--5--3--5bp-3-5~-|-------------------|
D|-------------|------5----------|------7--------|------5------------------|-------------------|
A|--5-3--------|-----------------|---------------|-------------------------|--5--3-------------|
E|------6-5-3--|-----------------|---------------|-------------------------|--------6--5--3----|
            mantiene estirada               mant.   mant 
e|-----------------------------|--------------------------13-----------------|---|
B|--3-3----5b-[5-5-5]----------|-------13-14b[14]-14b[14]---14-11----11------|---|
G|--3-3----5b-[5-5-5]-5-3--5br-|-12-15----------------------------12----12~|/--|
D|------5----------------------|---------------------------------------------|---|
A|-----------------------------|---------------------------------------------|---|
E|-----------------------------|---------------------------------------------|---|



SOLO DA SAXO:

GUITARRA:

e|------------|-------|----------|-----------|-------|----------|--------------|------|---------|
B|------------|-3-3~--|----------|-----------|--3-3~-|----------|--------------|-3-3~-|---------|
G|------------|-3-3~--|----------|-----------|--3-3~-|----------|--------------|-3-3~-|---------|
D|------------|-------|----------|-----------|-------|----------|--------------|------|---------|
A|--5-3-------|-------|-3-6--3-5-|--------.--|-------|-3-6--3-5-|--5-3---------|------|-3-6-3-5-|
E|------6-5-3-|-------|----------|-3--6b--3--|-------|----------|-------6-5-3--|------|---------|
    re7         re#7         RE7          SOl          RE7
e|-----------|-------------|----------|-------|---------------|---------------------------------|
B|--3----3---|-------4-4---|------3-3-|-------|---------3-----|---------------------------------|
G|--5-

Fuente original ATAME [www.atame.org]
Colaborador original: Guillee [elguille665@hotmail.com]

Fuente: tusacordes.com