a b c d e f g h i j k l m n o p q r s t u v w x y z 0-9

Hombre Electrico

Patricio Rey Y Sus Redonditos De Ricota

D
C
G
A
Bm
			
 D             C
E]-10-10---------8-8------]
B]-10----10------8---8----]
G]-11-------11---9-----9--]

   D                       C
E]-10-10-------10-10-------8-8------]
B]-10----10----10----10----8---8----]
G]-11-------11-11-------11-9-----9--]

   D             C
E]-10-10---------8-8------]
B]-10----10------8---8----]
G]-11-------11---9-----9--]

   G                A 
E]------------------------------------]
B]-6^8-6---8-6---6--8^10-8---10-8---8-]
G]-------7-----7-----------9------9---]

D            C
  Soy un perdido eléctrico,
D        C
  el universo eléctrico, 
D          C
  un multitudinario,
G            A 
  perdido y sin identidad.

 

Cuido mi tubo túnel

con DDT galáctico

y aunque parezca un crimen,

el monstruo no me sigue más.

 
 Bm      G  A   Bm
Yo soy, yo soy nadie,
Bm G A          G A 
         yo soy.

[Riff]

D]-------------5-----------]
A]---------5-8---8-5-------]
E]-7-7-5-7-----------7-5---]

D]--------------7-----------]
A]---------7-10---10-7-------]
E]-9-9-7-9-------------9-7---]
 

Y así prosigue el juego,
boda de aliados,
abuelitos perversos
timbeandose la eternidad.

 
-------------------------------------------
En los versos podés tocar sólo los acordes,
aunque no queda muy bien.

Saludos,
Angel
[Mza-Arg]

Aguanten los Redondos! 

Fuente original ATAME [www.atame.org]
Colaborador original: Angel Olivera [aolivera@softhome.net]

Fuente: tusacordes.com