a b c d e f g h i j k l m n o p q r s t u v w x y z 0-9

Heroe Del Wisky

Patricio Rey Y Sus Redonditos De Ricota

			
INTRO :  



 *Eduardo Skay Beilinson. 
Empieza la Guitarra sola
    DO#m7                              DO#m7
E|--------------------------------|------------3x3-2------------------|
B|--------------------------5--5-x|------------3x3-2----------5--5-x--|
G|-----------2x-2-2---------4--4-x|---------------------------4--4-x--|X 1
D|-----------2x-2-2---------------|-----------------------------------|
A|------2-4x--------4-2-4---------|-------2-4----------4-2-4-x--------|
E|--2-4---------------------------|--2-4------------------------------|

*Eduardo Skay Beilinson. 
Guitarra
      DO#m7                              DO#m7
E|--------------------------------|------------3x3-2------------------|
B|--------------------------5--5-x|------------3x3-2----------5--5-x--|
G|-----------2x-2-2---------4--4-x|---------------------------4--4-x--| X 2
D|-----------2x-2-2---------------|-----------------------------------|
A|------2-4x--------4-2-4-x-------|-------2-4----------4-2-4----------|
E|--2-4---------------------------|--2-4------------------------------|

*Semilla Bucciarelli.
 BAJO

G|--------------------------------|-----------------------------------|
D|--------------------------------|-----------------------------------|
A|------2-4---------4-2-4---------|-------2-4----------4-2-4----------| X 2
E|--2-4---------------------------|--2-4------------------------------|

y despues...

*Skay Beilinson. 
Guitarra
     DO#m7                              DO#m7
E|--------------------------------|--------------------------|
B|--------------------------5--5--|--------------------------|
G|-----------2-2-2----------4--4--|--------------------------| 
D|-----------2-2-2----------------|-------------5--5-4-2-----|
A|------2-4---------4-2-4---------|-------2-4--------------4-|
E|--2-4---------------------------|--2-4---------------------|

*Semilla Bucciarelli.
 BAJO

G|--------------------------------|--------------------------|
D|--------------------------------|--------------------------|
A|------2-4---------4-2-4---------|-------2-4--------------4-| 
E|--2-4---------------------------|--2-4--------3--3-2-0-----|



1er VERSO:



Durante el verso hace esto.

*Skay Beilinson. 
Guitarra
    DO#m7                               DO#m7
E|--------------------------------|------------3-3-2------------------|
B|--------------------------5--5--|------------3-3-2----------5--5----|
G|-----------2-2-2----------4--4--|---------------------------4--4----| X 2
D|-----------2-2-2----------------|-----------------------------------|
A|------2-4---------4-2-4---------|-------2-4----------4-2-4----------|
E|--2-4---------------------------|--2-4------------------------------|

*Semilla Bucciarelli.
 BAJO

G|--------------------------------|-----------------------------------|
D|--------------------------------|-----------------------------------|
A|------2-4---------4-2-4---------|-------2-4----------4-2-4----------| X 2
E|--2-4---------------------------|--2-4------------------------------|

LETRA:

      D0#m7 como arriba

        Venderá algún milagro...
        nada de más...
        De vendedores entrenados...
       ¡No digo más! 




1er ESTRIBILLO:




Durante estribillo toca asi

SI
Y regresara a su cuidad en la caja de un camión...
LA7                                           DO#m7 como intro
Las estrellas ahi nomas, a su alcance frias 


*Skay Beilinson.
Guitarra
              SI                             LA7
E|----------------------------------------|--------------------------------------|
B|-------4-4-4-4-4-4-4-4-4-4-4-4-4-4-4--0-|----2-2-2-2-2-2-2-2-2-2-2-2-2-2-2-2---|
G|-------4-4-4-4-4-4-4-4-4-4-4-4-4-4-4--0-|----0-0-0-0-0-0-0-0-0-0-0-0-0-0-0-0---|
D|-------4-4-4-4-4-4-4-4-4-4-4-4-4-4-4--0-|----2-2-2-2-2-2-2-2-2-2-2-2-2-2-2-2---|
A|-------2-2-2-2-2-2-2-2-2-2-2-2-2-2-2--0-|----0-0-0-0-0-0-0-0-0-0-0-0-0-0-0-0---|
E|----------------------------------------|--------------------------------------|


* BAJO       SI               SI              LA                   LA
G|----------------------------------------|--------------------------------------|
D|----------------------------------------|--------------------------------------|
A|-------2-2-2-2-2-2-2-4-----2-2-2-2-2-2--|--------------------------------------|
E|2-4-2------------------4-2------------2-|4-5-5-5-5-5-5--2-4-2--5-5-5-5-5-5-5---|



PRE-VERSO:



*Skay Beilinson. 
Guitarra
      DO#m7                              DO#m7
E|--------------------------------|------------3-3-2------------------|
B|--------------------------5--5--|------------3-3-2----------5--5----|
G|-----------2-2-2----------4--4--|---------------------------4--4----| 
D|-----------2-2-2----------------|-----------------------------------|
A|------2-4---------4-2-4---------|-------2-4----------4-2-4----------|
E|--2-4---------------------------|--2-4------------------------------|

*Semilla Bucciarelli.
 BAJO

G|--------------------------------|-----------------------------------|
D|--------------------------------|-----------------------------------|
A|------2-4---------4-2-4---------|-------2-4----------4-2-4----------| 
E|--2-4---------------------------|--2-4------------------------------|



2do VERSO:



IGUAL que el Primero..


 Tiene metido hasta las cejas 
 Un triste papel
 en un menu muy complicado 
 de tony soirée.


2do ESTRIBILLO:

 

IGUAL que el Primero..


      Es lo que puede ofrecer papeles tristes y sed
      de boca floja, y perdon para su lengua la, la,la,la,la la,la



PUENTE:




*Skay Beilinson. 
Guitarra
    
    DO5           DO#5      MI5           LA5
E|-------------------------------------------------|
B|-------------------------------------------------|
G|--5--------5-6------9-9---9-9-9--------------| 
D|--5--------5-6-6----9-9---9-9-9----7--7----| X 3
A|--3--------3-4-4----7-7---7-7-7----7--7----|
E|---------------------------------------5--5----|
*BAJO
G|-------------------------------------------------|
D|-------------------------------------------------|
A|--3--------3-4-4----7-7---7---------5----| X 3
E|-------------------------------------------------|



SOLO DE GUITARRA:  falta solo no lo pude sacar 



*Guitarra

E|-----------------------------|--------------------------------|
B|-----------------------------|--------------------------------|
G|-----------------------------|--------------------------------|
D|-----------------------------|--------------------------------|
A|-----------------------------|--------------------------------|
E|-----------------------------|--------------------------------|


*BAJO Durante el solo

G|-----------------------------|--------------------------------|
D|-----------------------------|--------------------------------|
A|------2-4---------4-2-4------|-------2-4----------4-2-4-------| 
E|--2-4------------------------|--2-4---------------------------|

G|-----------------------------|--------------------------------|
D|-----------------------------|--------------------------------|
A|------2-4---------4-2-4------|-------2-4----------4-2-4-------| 
E|--2-4------------------------|--2-4---------------------------|



3er VERSO:

 bajo es igual pero la guitarra sigue con el solo



Bailara para la prensa
y dedicara 
al nuevo Rock de las cavernas
a su vanidad



3er ESTRIBILLO:

 es Igual

SI
Un heroe del whisky mas, en la caja de un camión
LA7
las estrellas ahi nomás, a su alcance frias.


4to VERSO:

bajo es igual pero la guitarra sigue con riffs del solo.



No va a morir frente al DAKOTA
no alcanzará 
dice que el amor se muere 
y no dice más.



4to ESTRIBILLO:

 es Igual

SI
Un heroe del whisky mas, el perro se hace notar
LA7
su truco le hace ganar, nenas bohemias


TERMINA CON....


PUENTE:

 Hasta el final


*Skay Beilinson. 
Guitarra
    
    DO5           DO#5      MI5           LA5
E|-------------------------------------------------|
B|-------------------------------------------------|
G|--5--------5-6------9-9---9-9-9--------------| 
D|--5--------5-6-6----9-9---9-9-9----7--7----| X 4
A|--3--------3-4-4----7-7---7-7-7----7--7----|
E|---------------------------------------5--5----|
*BAJO
G|-------------------------------------------------|
D|-------------------------------------------------|
A|--3--------3-4-4----7-7---7---------5----| X 4
E|-------------------------------------------------|


Final disminuyendo el volumen...


escuchar bien el tema...

 mandenme tabs de los redondos sobre todo los solos y los riff´s 
asi los saco a todos bien completos ,,,
elguille665@hotmail.com

Fuente original ATAME [www.atame.org]
Colaborador original: GUILLERMO [elguille665@hotmail.com]

Fuente: tusacordes.com