a b c d e f g h i j k l m n o p q r s t u v w x y z 0-9

Gualicho

Patricio Rey Y Sus Redonditos De Ricota

			
Intro:
e|---------------------------------------|------------------------------------------------------|
B|---------------------------------------|------------------------------------------------------|
G|------2~-4~-------2--2/4~-4/2---2~-|------------------------------------------------------|
D|----0-----------0---------------4------|---0--2-2/4---4p2p0-2~-/4--4p2p0----------------|
A|--0-----------0------------------------|-0-------------------------------------2-2-0-2/5~-|
E|---------------------------------------|------------------------------------------------------|

Sigue asi..

GUITARRA: rasgueo
   RE           REsus4  RE       LAm            DO               MI
e|-2--2-2-2-|--3----2-2-2--2-|-0--0-0-0--|-0---0-0-||--||--------||
B|-3--3-3-3-|--3----3-3-3--3-|-1--1-1-1--|-1---1-1-||--||--------||
G|-2--2-2-2-|--2----2-2-2--2-|-2--2-2-2--|-0---0-0-||X3||--------||
D|-0--0-0-0-|--0----0-0-0--0-|-2--2-2-2--|-2---2-2-||--||---2--||
A|------------|----------------|-0--0-0-0--|-3---3-3-||--||---2--||
E|------------|----------------|-------------|-----------||--||---0--||


VERSO 1:

GUITARRA [ RE  -   REsus4 -RE -   LAm -  -  DO]  X4            
 
BAJO:
G|--------|------------|------------|------|--------||
D|--------|------------|------------|------|--------||
A|--5b--|-5b---5-5-|------------|-3--|-3------||X4
E|--------|------------|-5-5-5--|------|---5--0-||


RE  REsus4      LAm  DO 
El zumba se colgó 

RE  REsus4      LAm  DO 
del bondi a Finisterre

RE  REsus4      LAm  DO 
rajando del amor 

RE  REsus4      LAm  DO 
detrás de un beso nuevo


ESTRIBILLO 1:
 
GUITARRA 1:  MIm             SOL            LA
e|------------0---------|-3--3-3-3--|-0-0-0-0--0-0-|
B|------------0---------|-3--3-3-3--|-2-2-2-2--2-2-|
G|------------------------|-0--0-0-0--|-2-2-2-2--2-2-|X4
D|------------------------|-0--0-0-0--|-2-2-2-2--2-2-|
A|-2--2-2-2-----2-2-2-2-|-2--2-2-2--|-0-0-0-0--0-0-|
E|-0--0-0-0-----0-0-0-0-|-3--3-3-3--|----------------|

GUITARRA 2:
   fill  1          Fill 2           fill 3           fill4          Fill5
e|---------------|-----------------|---------------|--------------|----------------------|
B|---------------|-----------------|---------------|--------------|----------------------|
G|---------------|-----------------|---------------|--------------|----------------------|
D|-----------2-|-----------2-0-|-----------2-|-----------2|-2p0-------------7--|
A|---------------|-----------------|---------------|--------------|----2p0---2-5---------|
E|--0-0-2h3----|--0-0--2h3-------|--0-0--2h3-----|--0-0--2h3----|--------3----5------|

BAJO:
G|-------------|-----------|----------||
D|-------------|-----------|----------||
A|-------------|-----------|----------||X4
E|--0-0-0--0-|--3-3-3--|--5-5-||

*los fill van sobre MIm


Mim         Sol          La    Mim          
Con lo que cuesta armar un full
      Sol     La      Mim 
Armar algun puto full
       Sol       La    Mim        Sol LA  Mim
y jugarlo en este paño, Dios!


VERSO 2: igual

Gualicho de olvidar 
apretado en las manos
Las despedidas son 
de esos dolores dulces

Estribillo :
GUITARRA 1:  MIm             SOL            LA                 MIm
e|------------0---------|-3--3-3-3--|-0-0-0-0--0-0-|--|-------|
B|------------0---------|-3--3-3-3--|-2-2-2-2--2-2-|--|-------|
G|------------------------|-0--0-0-0--|-2-2-2-2--2-2-|X3|--0--|
D|------------------------|-0--0-0-0--|-2-2-2-2--2-2-|--|--2--|
A|-2--2-2-2-----2-2-2-2-|-2--2-2-2--|-0-0-0-0--0-0-|--|--2--|
E|-0--0-0-0-----0-0-0-0-|-3--3-3-3--|----------------|--|--0--|

GUITARRA 2:
   fill  1          Fill 2           fill 3           fill4         
e|---------------|-----------------|---------------|--------------|
B|---------------|-----------------|---------------|--------------|
G|---------------|-----------------|---------------|--------------|
D|-----------2-|-----------2-0-|-----------2-|-----------2|
A|---------------|-----------------|---------------|--------------|
E|--0-0-2h3----|--0-0--2h3-------|--0-0--2h3-----|--0-0--2h3----|

BAJO:
G|-------------|-----------|----------||--|-----|
D|-------------|-----------|----------||--|-----|
A|-------------|-----------|----------||X3|-----|
E|--0-0-0--0-|--3-3-3--|--5-5-||--|-0-|


Con lo que cuesta armar un full
armar algun puto full
y jugarlo en este paño, Dios!


SOLO DE TROMPETA:
GUITARRA:
    SOL7                    MI7                Do                LA7
e|--1----1---------|--|-0---0---------|--|-0---0---------|-5---5---------|--|
B|--0----0---------|--|-3---3---------|--|-1---1---------|-5---5---------|--|
G|--0--

Fuente original ATAME [www.atame.org]
Colaborador original: Guillee [elguille665@hotmail.com]

Fuente: tusacordes.com