a b c d e f g h i j k l m n o p q r s t u v w x y z 0-9

Gualicho

Patricio Rey Y Sus Redonditos De Ricota

D
C
			
Gualicho --
Una version que desarrolle que me parece suena mas a la
original 1 o 2 acordes distintos de los que andan por ahi

Bueno esto esta bien :

1 |------------------------------------------------------------------------> 
2 |----------------------0-0----------------------------------------------->
3 |-------2-----------2------2-0-2-----------------------------------------> 
4 |----0-----4-----0--------------------0--2--4--4--2--0-2-4-2-0--------0-->
5 |-0-----------0---------------------0--------------------------2-0-2----->
6 |------------------------------------------------------------------------>


D  Dsus4          C    Csus2  x3

Bien, es probable que se pregunten como son los acordes esos:

    D D  Dsus4   C C  Csus2
1 |---2---|---3---|---0---|---3---|
2 |---3---|---3---|---1---|---1---|
3 |---2---|---2---|---0---|---0---|
4 |---0---|---0---|---2---|---0---|
5 |---x---|---x---|---3---|---3---|
6 |---x---|---x---|---x---|---x---|

Ahora en vez de Csus2 tambien se puede hacer uno parecido que no encontre el nombre
es mas facil

1 |---3---|
2 |---1---|
3 |---0---|
4 |---2---|
5 |---3---|
6 |---x---|

Em...

Durante los versos de la cancion se repite menos en el estribillo,
que yo lo hago asi todavia no saque el punteo ese al final del estribillo:


          D D D Dsus4 Dsus4 Dsus4
        El zumba se colgo 
          C C C Csus2 Csus2 Csus2
        del bondi a Finisterre
          D D D Dsus4 Dsus4 Dsus4
        rajando del amor 
          C C C Csus2 Csus2 Csus2
        detras de un beso nuevo


              Em Em Em  G G G  A A A  E
        Con lo que cuesta armar un full
              Em Em Em  G G G  A A A  E
        armar algun puto full
              Em Em Em  G G G  A A A  E
        y jugarlo en este paño, Dios!

Y, de regalo, la letra entera... 

        El zumba se colgo 
        del bondi a Finisterre
        rajando del amor 
        detras de un beso nuevo

        Con lo que cuesta armar un full
        armar algun puto full
        y jugarlo en este paño, Dios!


        Gualicho de olvidar 
        apretado en las manos
        Las despedidas son 
        de esos dolores dulces

        Con lo que cuesta armar un full
        armar algun puto full
        y jugarlo en este paño, Dios!


        Caldos de venus que
        son como agua bendita
        y un par de rounds de amor
        con la tele encendida


        Con lo que cuesta armar un full
        armar algun puto full
        y jugarlo en este paño, Dios!


        Puede ser chaparron
        pero tambien tormenta
        No quiero verte mas!
        sera asi mi ceguera?


        Con lo que cuesta armar un full
        armar algun puto full
        y jugarlo en este paño, Dios!

        Con lo que cuesta armar un full
        armar algun puto full
        y jugarlo en este paño, Dios!

                                       Em...
       Gualicho de olvidar... 

A Practicar !!

Fuente original ATAME [www.atame.org]
Colaborador original: WoRm [boca_yo@hotmail.com]

Fuente: tusacordes.com