a b c d e f g h i j k l m n o p q r s t u v w x y z 0-9

Gualicho

Patricio Rey Y Sus Redonditos De Ricota

			
***NO HAY BAJO EN EL INTRO***

Verso	
G|---------------|x3 |--------------------|
D|---------------|   |----------------2-5-|
A|-55555------3--|   |-55555------3-3-----|
E|-------5555----|   |-------5555---------|

Coro
G|--------------|x4
D|--------------|
A|--------------|
E|-0-00---3-55--|

Verso	
G|---------------|x3 |--------------------|
D|---------------|   |----------------2-5-|
A|-55555------3--|   |-55555------3-3-----|
E|-------5555----|   |-------5555---------|

Coro
G|--------------|x4
D|--------------|
A|--------------|
E|-0-00---3-55--|

Solo escúchalo bien para saber el ritmo
**Improvisar pentatónicas o arpegios de RE
y mezclarlos con esta base durante el solo de saxo**
G|---------------|
D|---------------|
A|-5--5----5--5--|
E|---------------|

Verso	
G|---------------|x3 |--------------------|
D|---------------|   |----------------2-5-|
A|-55555------3--|   |-55555------3-3-----|
E|-------5555----|   |-------5555---------|

Coro
G|--------------|x4
D|--------------|
A|--------------|
E|-0-00---3-55--|

Verso	
G|---------------|x3 |--------------------|
D|---------------|   |----------------2-5-|
A|-55555------3--|   |-55555------3-3-----|
E|-------5555----|   |-------5555---------|

Coro **HASTA EL FINAL**
G|--------------|
D|--------------|
A|--------------|
E|-0-00---3-55--|

Escuchá la canción para saber el ritmo

Fuente original ATAME [www.atame.org]
Colaborador original: Sebastián Vidondo [rojoamargodelsiglo@yahoo.com.ar]

Fuente: tusacordes.com