a b c d e f g h i j k l m n o p q r s t u v w x y z 0-9

Gran Lady

Patricio Rey Y Sus Redonditos De Ricota

			
intro

guitarra:

e|-----------------------------------------||-----------------------------------------||
B|--/-8--8---------------------------------||--/-8--8---------------------------------||
G|--/-9--9----7-5--------------------------||--/-9--9----7-5--------------------------||
D|----------------7-5-7----------------2-2-||----------------7-5-7----------------2-2-||
A|-----------------------2--2--2-------0-0-||-----------------------2--2--2-------0-0-||
E|-----------------------0--0--0---3~------||-----------------------0--0--0---3~------||

BAJO:
G|-----------------------------------------||-----------------------------------------||
D|-----------------------------------------||-----------------------------------------||
A|-----------------------------------------||-----------------------------------------||
E|-----------------------------------------||-----------------------0--0--0---3---5-5-||


VERSO:

guitarra:          RIFF 1                                RIFF 2
e|-----------------------------------------||-----------------------------------------||
B|--/-8--8---------------------------------||--/-8--8---------------------------------||
G|--/-9--9----7-5--------------------------||--/-9--9----5-7---5~-------------------|| x2
D|----------------7-5-7----------------2-2-||----------------7--------------------2-2-||
A|-----------------------2--2--2-------0-0-||-----------------------2--2--2-------0-0-||
E|-----------------------0--0--0---3~------||-----------------------0--0--0---3~------||

BAJO:
G|-----------------------------------------||-----------------------------------------||
D|-----------------------------------------||-----------------------------------------|| x2
A|-----------------------------------------||-----------------------------------------||
E|-----------------------0--0--0---3---5-5-||-----------------------0--0--0---3---5-5-||

riff 1
Llegue a transar ua vulcan roja
riff 2
 y alli la conoci..
riff 1
en un tugurio de frontera
riff 2
 visteando en portuņol .



ESTRIBILLO 1:

do  re  do     riff
Gran Lady!

do  re  do     riff
Gran Lady! 


guitarra: 
e|-------------------------------------------|
B|-------------------------------------------|
G|-------------------------------------------|
D|----5x---7x----5-------------------2--2--| x2
A|-0--3x---5x----3-----2--2--2-------0--0--|
E|-----------------------0--0--0---3~--------|
     do    re    do         riff
bajo:
G|-------------------------------------------|
D|-------------------------------------------| x2
A|-0--3-0--5-----3-----------------~-------|
E|-----------------------0--0--0---3---------|


VERSO 2:  sin bajo  

                                   fill 1
Lionel Ritchie en el Bar Princesa
                 fill 2
 soņaba en soņador
  
 y la gran Lady se tatuaba
fill 3                     riff
 en una hamaca tibia al sol .


guitarra:

  fill 1       fill 2       fill 3    riff
e|--------------|------------------|--------------|------------------|
B|-------8-8----|---8-/-----5--|---8-x--8x----|------------------|
G|-------9-9----|---9-/--7--5--|---9-x--9x----|------------------|
D|--------------|------------------|--------------|------------2-2---|
A|--------------|------------------|--------------|--2-2-2-----0-0---|
E|--------------|------------------|--------------|--0-0-0--3~-------|

bajo:
G|--------------|------------------|--------------|------------------|
D|--------------|------------------|--------------|------------------|
A|--------------|------------------|--------------|------------------|
E|--------------|------------------|--------------|--0-0-0--3--5-5---|



VERSO 3: igual al verso 

riff 1
todo bonito y barato
riff 2
 playeras marca "top"
riff 1
billetes rotos de loteria
riff 2
sembrados por el hall .



ESTRIBILLO 2 es casi igual, engancha con el puente

do  re  do     riff
Gran Lady!

do  re  do     riff + puente
Gran Lady! 

guitarra: 
e|-------------------------------------------||------------------------------------|-------|
B|-------------------------------------------||------------------------------------|-------|
G|-------------------------------------------||------------------------------------|-------|
D|----5x---7x----5-------------------2--2--||----5x---7x----5------------------|-puente|   
A|-0--3x---5x----3-----2--2--2-------0--0--||-0--3x---5x----3-----2--2--2------|-------|
E|-----------------------0--0--0---3~--------||-----------------------0--0--0---3~-|-------|
     do    re    do         riff                   do   re    do      riff     
bajo:
G|-------------------------------------------||------------------------------------|-------|
D|-------------------------------------------||------------------------------------|-puente|
A|-0--3-0--5-----3-------------------------||-0--3-0--5-----3------------------|-------|
E|-----------------------0--0--0---3---------||-----------------------0--0--0---3--|-------|

PUENTE;
Guitarra                                              la
e|---------------------------------||-----------------------------------|-------|
B|---------------------------------||-----------------------------------|-------|
G|---------------------------------||-----------------------------------|-------|y engancha con
D|------2-5-2---------------2----||-------2-5-2---------------2-----|-------| el "OUTRO"
A|--2---------0-2-5-5---2-5------||--2-------------0-2-5-5--2-5-------|--0----|
E|--0----------------------------||--0--------------------------------|-------|
BAJO:
G|---------------------------------||-----------------------------------|-------|
D|----------------------------2----||------------------------------2----|-------|
A|----------------2-5-5---2-5------||------------------2-5-5---2-5------|--0----| 
E|--0--0------5------------------||--0----0------5------------------|-------|


OUTRO:
[letra:]

 La gran Lady te a caricia y no besa oh! no.. 
 es un instante de belleza muy cruel
 mira tu suerte en los bulzios
 quita la sal de tus mejillas, feliz. 

guitarra:
e|--------------------------------------||    |-------------------------|
B|--------------------------------------||    |-------------------------|
G|------5-----9------8------8-/-------||X 7 |--7-7-7-7-7-7------------|
D|------5-----10-----9------9-/-------||    |--7-7-7-7-7-7------------|
A|--0-0---0-0----0-0----0-0-------------||    |---------------0-2-----|
E|--------------------------------------||    |-----------------0-----|
PM  ...   ...    ...    ...
 
BAJO:    LA                                       RE
G|--------------------------------------||    |-------------------------|
D|--------------------------------------|| x7 |-------------------------|
A|--------------------------------------||    |--5-5-5-5-5-5--0---------| engancha con estribillo
E|-5-5-5-5-5-5-5-5-5-5-5-5-5----0-3-4-||    |-----------------0-----|


ESTRIBILLO:  REPITE

Gran Lady! ..
Gran Lady! ...

guitarra: 
e|-------------------------------------------|     |           |
B|-------------------------------------------|     |           |
G|-------------------------------------------|     |           |
D|----5x---7x----5-------------------2--2--| x2  |  SILENCIO |
A|-0--3x---5x----3-----2--2--2-------0--0--|     |           |
E|-----------------------0--0--0---3~--------|     |           |
     do    re    do         riff
bajo:
G|-------------------------------------------|     |           |
D|-------------------------------------------| x2  |           |
A|-0--3-0--5-----3-----------------~-------|     | SILENCIO  |
E|-----------------------0--0--0---3---------|     |           |


VERSO 4: la base es igual

                                fill 1
paredes de carton piedra, un lujo
                    fill 2
 y el milagro sensual 
                           fill 3
de mujeres fantasmas gringas 
                RIFF
y morenas joyon 

guitarra:

  fill 1       fill 2       fill 3    riff
e|--------------|------------------|--------------|------------------|
B|-------8-8----|---8-/-----5--|---8-x--8x----|------------------|
G|-------9-9----|---9-/--7--5--|---9-x--9x----|------------------|
D|--------------|------------------|--------------|------------2-2---|
A|--------------|------------------|--------------|--2-2-2-----0-0---|
E|--------------|------------------|--------------|--0-0-0--3~-------|

bajo:
G|--------------|------------------|--------------|------------------|
D|--------------|------------------|--------------|------------------|
A|--------------|------------------|--------------|------------------|
E|--------------|------------------|--------------|--0-0-0--3--5-5---|


VERSO 5:  base igual al 1

[letra]

botellas de johnie rojo 
de johnie negro y ron 
y de cachaca doncella loca
 que calma tu dolor.

REPITE ESTRIBILLO 2
ESTRIBILLO 2 es casi igual, engancha con el puente

do  re  do     riff
Gran Lady!

do  re  do     riff + puente
Gran Lady! 

guitarra: 
e|-------------------------------------------||------------------------------------|-------|
B|-------------------------------------------||------------------------------------|-------|
G|-------------------------------------------||------------------------------------|-------|
D|----5x---7x----5-------------------2--2--||----5x---7x----5------------------|-puente|   
A|-0--3x---5x----3-----2--2--2-------0--0--||-0--3x---5x----3-----2--2--2------|-------|
E|-----------------------0--0--0---3~--------||-----------------------0--0--0---3~-|-------|
     do    re    do         riff                   do   re    do      riff    
bajo:
G|-------------------------------------------||------------------------------------|-------|
D|-------------------------------------------||------------------------------------|-puente|
A|-0--3-0--5-----3-------------------------||-0--3-0--5-----3------------------|-------|
E|-----------------------0--0--0---3---------||-----------------------0--0--0---3--|-------|

 repite PUENTE;

Guitarra                                              la
e|---------------------------------||-----------------------------------|-------|
B|---------------------------------||-----------------------------------|-------|y engancha con
G|---------------------------------||-----------------------------------|-------|
D|------2-5-2---------------2----||-------2-5-2---------------2-----|-------|  el "OUTRO"
A|--2---------0-2-5-5---2-5------||--2-------------0-2-5-5--2-5-------|--0----|
E|--0----------------------------||--0--------------------------------|-------|
BAJO:
G|---------------------------------||-----------------------------------|-------|
D|----------------------------2----||------------------------------2----|-------|
A|----------------2-5-5---2-5------||------------------2-5-5---2-5------|--0----|
E|--0--0------5------------------||--0----0------5------------------|-------|


repite OUTRO:

[letra:]

 La gran Lady te a caricia y no besa oh! no.. 
 es un instante de belleza muy cruel
 mira tu suerte en los bulzios
 quita la sal de tus mejillas, feliz. 

guitarra:
e|--------------------------------------||    |-------------------------|
B|--------------------------------------||    |-------------------------|
G|------5-----9------8------8-/-------||X 7 |--7-7-7-7-7-7------------|
D|------5-----10-----9------9-/-------||    |--7-7-7-7-7-7------------|
A|--0-0---0-0----0-0----0-0-------------||    |---------------0-2-----|
E|--------------------------------------||    |-----------------0-----|
PM  ...   ...    ...    ...
 
BAJO:    LA                                       RE
G|--------------------------------------||    |-------------------------|
D|--------------------------------------|| x7 |-------------------------|
A|--------------------------------------||    |--5-5-5-5-5-5--0---------| engancha con estribillo
E|-5-5-5-5-5-5-5-5-5-5-5-5-5----0-3-4-||    |-----------------0-----|

REPITE ESTRIBILLO HASTA EL FINAL

Gran Lady! ] x8

guitarra: 
e|-------------------------------------------|    
B|-------------------------------------------|   
G|-------------------------------------------|    
D|----5x---7x----5-------------------2--2--| x8 
A|-0--3x---5x----3-----2--2--2-------0--0--|     
E|-----------------------0--0--0---3~--------|
     do    re    do         riff
bajo:
G|-------------------------------------------|
D|-------------------------------------------| x8 
A|-0--3-0--5-----3-----------------~-------|
E|-----------------------0--0--0---3---------|

fin-.....

Fuente original ATAME [www.atame.org]
Colaborador original: GUILLE [elguille665@hotmail.com]

Fuente: tusacordes.com