a b c d e f g h i j k l m n o p q r s t u v w x y z 0-9

Fuegos De Octubre

Patricio Rey Y Sus Redonditos De Ricota

			
BASE:
|----------------------|
|----------------------|
|---4---4---4---4------|
|----------------------|
|-2---2---2---2--------|
|----------------------|


           
|--5-7-7-5-7V-------------5-7-7-5-7V--------------|
|-------------5-7-7-5-7V-------------5-7-7-5-7V---|
|-------------------------------------------------|
|-------------------------------------------------|
|-------------------------------------------------|
|-------------------------------------------------|



|-------------------------------|
|-8------6-7V----8-------6-7V---|
|----7-6------------7-6---------|
|-------------------------------|
|-------------------------------|
|-------------------------------|




|-------------------------------------------------|
|-------------------------------------------------|
|-3--4--6--7--9--7--6-----3--4--6--7--9--7--6-----|
|-------------------------------------------------|
|-------------------------------------------------|
|-------------------------------------------------|



          SOLO:
|-------------------------12-12-12----------14----|
|--10-12-12-10-12-12-10V-----------10-1012-------|
|-------------------------------------------------|
|-------------------------------------------------|
|-------------------------------------------------|
|-------------------------------------------------|



|----14-------14----14-----14----------12V--------|
|-12----12-12----12-----12-------16-10------------|
|-------------------------------------------------|
|-------------------------------------------------|
|-------------------------------------------------|
|-------------------------------------------------|


            INTERMEDIO:
|---------------------------------------|
|---------------------------------------|
|---------------------------------------|
|---------------------------------------|
|-------0-2-3-4-5--------0-2-3-4-5------|
|-0-2-3------------0-2-3----------------|



            FINAL:
|-----------------------------------------|
|-8---------------------------------------|
|---7--6----------------------------------|
|---------8--9----------------------------|
|---------------9--7--5--4--2--1------2---|
|---------------------------------2-------|

Fuente original ATAME [www.atame.org]
Colaborador original: Nookie [alpiojo2001@hotmail.com]

Fuente: tusacordes.com