a b c d e f g h i j k l m n o p q r s t u v w x y z 0-9

Fuegos De Octubre

Patricio Rey Y Sus Redonditos De Ricota

			
Intro
G|-----|x24 |-----------|
D|-----|    |-----------|
A|-1h2-|    |---5-4---1-|
E|-----|    |-3-----1---|

 |-----|x3  |-----------|
 |-----|    |-----------|
 |-1h2-|    |---5-4---1-|
 |-----|    |-3-----1---|

 |-----|x19 |-----------|
 |-----|    |-----------|
 |-1h2-|    |---5-4---1-|
 |-----|    |-3-----1---|
 
 |-----|x3  |-----------|
 |-----|    |-----------|
 |-1h2-|    |---5-4---1-|
 |-----|    |-3-----1---|

 |-----|x4
 |-----|
 |-1h2-|
 |-----|

Verso
G|-----|x14 |-----------|
D|-----|    |-----------|
A|-1h2-|    |---5-4---1-|
E|-----|    |-3-----1---|

 |-----|x3  |-----------|
 |-----|    |-----------|
 |-1h2-|    |---5-4---1-|
 |-----|    |-3-----1---|

 |-----|x3
 |-----|
 |-1h2-|
 |-----|

Puente
G|------------------------|x2
D|------------------------|
A|-2--2--2--2--2--2--2--2-|
E|------------------------|

 |-----|x32 |------------------|x4
 |-----|    |------------------|
 |-1h2-|    |------5--5-4--4---|
 |-----|    |-3--3-----------1-|
 
Verso
G|-----|x14 |-----------|
D|-----|    |-----------|
A|-1h2-|    |---5-4---1-|
E|-----|    |-3-----1---|

 |-----|x3  |-----------|
 |-----|    |-----------|
 |-1h2-|    |---5-4---1-|
 |-----|    |-3-----1---|

 |-----|x3
 |-----|
 |-1h2-|
 |-----|

Final
G|---------------------|
D|---------------------|
A|---5-4------5-4---1--|
E|-3-----1--3-----1----|

Escuchá la canción para saber el ritmo

Fuente original ATAME [www.atame.org]
Colaborador original: Sebastián Vidondo [rojoamargodelsiglo@yahoo.com.ar]

Fuente: tusacordes.com