a b c d e f g h i j k l m n o p q r s t u v w x y z 0-9

Fuegos De Octubre

Patricio Rey Y Sus Redonditos De Ricota

			
riff
|-------------
|-------------
|-------------
|-------------
|-------5-----
|---6-7-------
 
|--------------------------------------------------
|-10~-12--12--10h12--riff--------------------------
|--------------------------9h11--11--9h11--riff----    x2
|--------------------------------------------------
|--------------------------------------------------
|--------------------------------------------------
 
|--------------------------------------------------
|-----------7h8--riff----------------8-------------
|--12--8p7-------------12---8p7---5----------------
|--------------------------------------------------
|--------------------------------------------------
|--------------------------------------------------
 
  de  regreso a octubre 
|--------------------------------------------------
|-10~-12--12--10h12--riff--------------------------
|--------------------------9h11--11--9h11--riff----    x2
|--------------------------------------------------
|--------------------------------------------------
|--------------------------------------------------
 
|--------------------------------------------------
|-----------7h8--riff----------------8-------------
|--12--8p7-------------12---8p7---5----------------
|--------------------------------------------------
|--------------------------------------------------
|--------------------------------------------------
 

|----------------------------0-
|---------4--6--4p3~---------0-
|--4--5h7--------------------0-
|------------------------------
|------------------------------
|------------------------------
 
|--------------------------------------------------12------
|-10~-12--12--10h12-10h12--10h12--10h12--10h12-10#----10---
|----------------------------------------------------------  x2
|----------------------------------------------------------
|----------------------------------------------------------
|----------------------------------------------------------
 
|-12-11-10--12-12---10-10--12-11-10--12-12---10-10--12-11-10--12-12---10-10------10#--
|----------------------------------------------------------------------------12-------
|------------------------------------------------------------------------------------- x2
|-------------------------------------------------------------------------------------
|-------------------------------------------------------------------------------------
|-------------------------------------------------------------------------------------
 
|-----------------------------
|-----------------------------
|-----------------------------
|-----------------------------
|---------0~--2-4--5----------
|-0~--2-3---------------------
 
|-----------------------------
|-----------------------------
|-----------------------------
|-----------------------------
|---------0~--2-4--5--7-------
|-0~--2-3---------------------
 
|-----------------------------------
|----------3--5h6--5----------------
|--2--4h5-------------7-------------
|-----------------------------------
|-----------------------------------
|-----------------------------------

Fuente original ATAME [www.atame.org]
Colaborador original: christian jauregui [stones67@latinmail.com]

Fuente: tusacordes.com