a b c d e f g h i j k l m n o p q r s t u v w x y z 0-9

Etiqueta Negra

Patricio Rey Y Sus Redonditos De Ricota

			
INTRO : 

*Eduardo Skay Bellinson Guitarra

 LAm                    RE           MI     LAm             RE         MI
E|0-----------------|------------|-------|0---------------|-----------|----------|
B|1-----------------|------------|-------|1---------------|-----------|----------|
G|2-----------------|------------|-------|2---------------|-----------|----------|
D|2-----5^7-5^7--2--|------------|-------|2----5^7-5^7-2--|-----------|---5^7-5^7|
A|0-0-0-----------3-|0-5--3-3-2-0|0-2-3-5|0-0-0---------3-|0-5--3-3-2-|2-0-------|
E|-----------------5|------------|-------|---------------5|-----------|----------|


*Semilla Bucciarelli BAJO
  LA                    RE         MI           LA          RE         MI
G|------------------|------------|-------|----------------|-----------|----------|
D|------------------|------------|-------|----------------|-----------|----5/7-5/|
A|------------------|5--5-5--5---|--7-7-7|----------------|5--5-5--5--|7-77------|
E|-5--5-5--5--5-5--5|------------|-------|5--5-5--5--5-5-5|-----------|----------|


*GUITARRA 2 Toca estas notas durante la intro
------------


[LAm - RE - MI - LAm - RE - MI ]  guitarra sin distorcion.




1er VERSO: 


----------

*Skay Bellinson 

  LAm  SoL6/si   DO     RE      MI    LAm  LAm  Sol6/si   DO     RE      MI    LAm

E|-0-0-|---0-|------0-|---2---|------|-0-|-0-0-|---0-|------0-|---2---|------|-0-|
B|-1-1-|---0-|---1--1-|----3--|----0-|-1-|-1-1-|---0-|---1--1-|----3--|----0-|-1-|
G|-2-2-|-----|----0---|-----2-|-1--1-|-2-|-2-2-|-----|----0---|-----2-|-1--1-|-2-|
D|-2-2-|-0---|--------|-0-----|-2----|-2-|-2-2-|-0---|--------|-0-----|-2----|-2-|
A|-0-0-|-2---|-3------|-------|-2----|-0-|-0-0-|-2---|-3------|-------|-2----|-0-|
E|-----|-----|--------|-------|-0----|---|-----|-----|--------|-------|-0----|---|



*GUITARRA 2 Toca estas notas:

[LAm - Sim - DO-  RE -  MI-  LAm - LAm- Sim - DO  - RE -  MI-  LAm]



*BAJO:

  la     si    do       re      mi    la   la    si     do      re      mi     la
G|-----|-----|--------|-------|------|---|-----|-----|--------|-------|------|---|
D|-----|-----|--------|-------|------|---|-----|-----|--------|-------|------|---|
A|-----|-2-22|-3--33-3|-5--5--|-7--7-|---|-----|-2-22|-3--33-3|-5--5--|-7--7-|---|
E|5--55|-----|--------|-------|------|-5-|-5-55|-----|--------|-------|------|-5-|




LAm    G6/B         DO           RE    Mi      LAm
   Venía rápido, muy rápido y se le soltó un patín.
        G6/B               DO
A él que era rey de esta jungla
   RE     MI       LAm
se le soltó un patín...





1er PUENTE: 

 
----------

* Skay Bellinson Guitarra

     LAm             RE         MI   
E|0---------------|-----------|----------|
B|1---------------|-----------|----------|
G|2---------------|-----------|----------|
D|2----5^7-5^7-2--|-----------|---5^7-5^7|
A|0-0-0---------3-|0-5--3-3-2-|2-0-------|
E|---------------5|-----------|----------|

*BAJO:
  LA                    RE         MI         
G|------------------|------------|-------|
D|------------------|------------|-------|
A|------------------|5--5-5--5---|--7-7-7|
E|-5--5-5--5--5-5--5|------------|-------|




2do VERSO: 


---------   Guitarras y Bajo tocan las mismas notas que en el primer VERSO



Su corazón no, no era un hotel
aunque corria ese rumor
y hoy tiene una entre otras cruces
en este bosque siempre cruel.



2do PUENTE:


----------

*Skay Bellinson

     LAm             RE         MI     Riff
E|0---------------|-----------|----|-----------|
B|1---------------|-----------|----|-----------|
G|2---------------|-----------|----|-----------|
D|2----5^7-5^7-2--|-----------|----|-------1-0-|
A|0-0-0---------3-|0-5--3-3-2-|2-0-|-0-2-3-----|
E|---------------5|-----------|----|-----------|

*BAJO

  LA                   RE       MI     Riff   
G|----------------|-----------|----|-----------|
D|----------------|-----------|----|-------1-0-|
A|----------------|5--5-5--5--|7-77|-0-2-3-----|
E|-5--55--5--55--5|-----------|----|-----------|





1er ESTRIBILLO: 


--------------

*Skay Bellinson

  RE         DO      RE
E|--2---2|--0----|--2-----|
B|--3---3|--1----|--3-----|
G|--2---2|--0----|--2-----|
D|--0---0|--2----|--0-----|
A|---------|--3----|--------|
E|---------|-------|--------|

*BAJO
  RE          DO      RE
G|---------|-------|-------|
D|---------|-------|-------|
A|--5----|-2^3--/|-5---|
E|---------|-------|-------|


Re               Do Re
  Dejó un billete    que pide a gritos que lo gasten...




SOLO DE SAXO: 

 durante el solo de Saxo.
------------

*Skay Bellinson Guitarra 1.

E|-----------------------------|
B|-----------------------------|
G|-----------------------------| X 4
D|-----------------------------|
A|----3-2-----3-2--------------|
E|--5-----3-5------0--3--5-----|


* BAJO durante el solo.

G|-----------------------------| 
D|-----------------------------| X 4
A|----3-2-----3-2--------------|
E|--5-----3-5------0--3--5-----|


y despues...


*Skay Bellinson

    RE       FA7      LAm  LAm7  LAm      RE       FA7     LAm  LAm7  LAm   SOL
E|-2--2-2-|x-1--1--|--0--0-0-0--0-0-0-|-2--2-2-|x-1--1--|--0--0-0-0--0-0-0-|-3-3-3|
B|-3--3-3-|x-1--1--|--1--1-1-1--1-1-1-|-3--3-3-|x-1--1--|--1--1-1-1--1-1-1-|-0-0-0|
G|-2--2-2-|x-2--2--|--2--2-0-2--2-0-2-|-2--2-2-|x-2--2--|--2--2-0-2--2-0-2-|-0-0-0|  
D|-0--0-0-|x-1--1--|--2--2-2-2--2-2-2-|-0--0-0-|x-1--1--|--2--2-2-2--2-2-2-|-0-0-0|
A|--------|x-3--3--|0-0--0-0-0--0-0-0-|--------|x-3--3--|0-0--0-0-0--0-0-0-|-2-2-2|
E|--------|x-1--1--|0-----------------|--------|x-1--1--|0-----------------|-3-3-3|


*BAJO:
   RE       FA       LA   LA-SOL-LA       RE       FA     LA  LA-SOL-LA     SOL
G|--------|--------|------------------|--------|--------|------------------|------|
D|--------|--------|------------------|--------|--------|------------------|------|
A|-5-555-5|--------|------------------|-5-555-5|--------|------------------|------|
E|--------|-1--11-3|5-55-5-3-5--5-3-5-|--------|-1--11-3|5-55-5-3-5--5-3-5-|-3--|


*GUITARRA 2 
 
[ RE - FA7 - LAm - (LAm-LAm7 LAm) X2 ]  2 VECES  [SOL]  
                                        .......




2do ESTRIBILLO: 

  igual que el Primero
--------------

Re            Do Re
  Como una hoja     derivó en tu mismo turbio rio.




3er PUENTE: 

  igual que INTRO
-----------

*Skay Bellinson Guitarra

 LAm                    RE           MI     LAm             RE         MI
E|0-----------------|------------|-------|0---------------|-----------|----------|
B|1-----------------|------------|-------|1---------------|-----------|----------|
G|2-----------------|------------|-------|2---------------|-----------|----------|
D|2-----5^7-5^7--2--|------------|-------|2----5^7-5^7-2--|-----------|---5^7-5^7|
A|0-0-0-----------3-|0-5--3-3-2-0|0-2-3-5|0-0-0---------3-|0-5--3-3-2-|2-0-------|
E|-----------------5|------------|-------|---------------5|-----------|----------|






3er VERSO:

  Guitarras y Bajo Iguales que en los demás
---------

Entre amuletos y talismanes su destino desafió
si nariz crecia de tamaño, prometía más.






4to PUENTE: 

  Igual Que el 1er PUENTE
----------

* Skay Bellinson 

     LAm             RE         MI   
E|0---------------|-----------|----------|
B|1---------------|-----------|----------|
G|2---------------|-----------|----------|
D|2----5^7-5^7-2--|-----------|---5^7-5^7|
A|0-0-0---------3-|0-5--3-3-2-|2-0-------|
E|---------------5|-----------|----------|




4to VERSO: 

 Mismas notas
---------


No le robaba nunca nada a nadie,
a nadie en especial
ganó un orzuelo de tercer ojo
y su nariz sangró.




5to PUENTE: 

    es Igual al 2do Puente
----------

*Skay Bellinson

     LAm             RE         MI     Riff
E|0---------------|-----------|----|-----------|
B|1---------------|-----------|----|-----------|
G|2---------------|-----------|----|-----------|
D|2----5^7-5^7-2--|-----------|----|-------1-0-|
A|0-0-0---------3-|0-5--3-3-2-|2-0-|-0-2-3-----|
E|---------------5|-----------|----|-----------|

*BAJO

  LA                   RE       MI     Riff   
G|----------------|-----------|----|-----------|
D|----------------|-----------|----|-------1-0-|
A|----------------|5--5-5--5--|7-77|-0-2-3-----|
E|-5--55--5--55--5|-----------|----|-----------|






3er ESTRIBILLO: 

   Igual
--------------

RE              DO RE
No hubo caricias      para su celo moro.





2do SOLO DE SAXO: 

  notas Iguales al primer solo
----------------
durante el solo de Saxo.


*Skay Bellinson Guitarra 1.

E|-----------------------------|
B|-----------------------------|
G|-----------------------------| X 4
D|-----------------------------|
A|----3-2-----3-2--------------|
E|--5-----3-5------0--3--5-----|


* BAJO durante el solo.

G|-----------------------------| 
D|-----------------------------| X 4
A|----3-2-----3-2--------------|
E|--5-----3-5------0--3--5-----|


y despues...


*Skay Bellinson

    RE       FA7      LAm  LAm7  LAm      RE       FA7     LAm  LAm7  LAm   SOL
E|-2--2-2-|x-1--1--|--0--0-0-0--0-0-0-|-2--2-2-|x-1--1--|--0--0-0-0--0-0-0-|-3-3-3|
B|-3--3-3-|x-1--1--|--1--1-1-1--1-1-1-|-3--3-3-|x-1--1--|--1--1-1-1--1-1-1-|-0-0-0|
G|-2--2-2-|x-2--2--|--2--2-0-2--2-0-2-|-2--2-2-|x-2--2--|--2--2-0-2--2-0-2-|-0-0-0|  
D|-0--0-0-|x-1--1--|--2--2-2-2--2-2-2-|-0--0-0-|x-1--1--|--2--2-2-2--2-2-2-|-0-0-0|
A|--------|x-3--3--|0-0--0-0-0--0-0-0-|--------|x-3--3--|0-0--0-0-0--0-0-0-|-2-2-2|
E|--------|x-1--1--|0-----------------|--------|x-1--1--|0-----------------|-3-3-3|


*BAJO:
   RE       FA       LA   LA-SOL-LA       RE       FA     LA  LA-SOL-LA     SOL
G|--------|--------|------------------|--------|--------|------------------|------|
D|--------|--------|------------------|--------|--------|------------------|------|
A|-5-555-5|--------|------------------|-5-555-5|--------|------------------|------|
E|--------|-1--11-3|5-55-5-3-5--5-3-5-|--------|-1--11-3|5-55-5-3-5--5-3-5-|-3--|

               


4to ESTRIBILLO: 

  Es Igual al 2do Estribillo
--------------


SOL  RE            DO  RE  
      y ahora mira       crecer las flores desde abajo.




SOLO DE GUITARRA: 


----------------

*Skay Bellinson Guitarra

   LAm                   RE       MI           LAm        RE          MI

E|-0~~------------|--------|---------|-------------|-------------|-------------|
B|-1~~------------|--------|---------|-------------|-------------|-------------|
G|-2~~/-7b--8^7^5-|7/9-|-----5-7-|-------------|-------------|-------------|
D|-2~~------------|--------|-5-7-----|-7-----------|-------------|-------------|
A|-0~~------------|--------|---------|--7----------|-5-5-555-5-5/|7----------|
E|------------------|--------|---------|----5--8-8---|-------------|----8-7--0---|

   LAm            RE         MI             LAm              RE         MI

E|-----------|-5-5/7b^8-|-------------|-----------------|----------|-----------|
B|-----------|-5----------|3b--3b3b3b-3^|5~~~-----------|----------|-----------|
G|-----------|-5----------|--5b---------|------7-5----5b|7b7b-5-4|5-7--7-4-5-|
D|--7------|------------|-------------|----------7-5----|----------|----------5|
A|-----------|------------|-------------|-----------------|----------|-----------|
E|-5---------|------------|-------------|-----------------|----------|-----------|

   LA                    RE         MI           LA          RE        MI   LA

E|------------------|-----------|----------|------------|-----------|------|-----|
B|------------------|-----------|----------|----------13|10-13-12-|15-13/|17b|
G|---------------2-2|4-4444-4-4/|2--7-5-7--|5~~---10--|-----------|------|-----|
D|-7~~~-----------|-----------|----------|------------|-----------|------|-----|
A|------------------|-----------|----------|------------|-----------|------|-----|
E|------------------|-----------|----------|------------|-----------|------|-----|


.hace un fade out... 

*BAJO: durante el solo de guitarra
------

  LA                    RE         MI           LA          RE         MI
G|------------------|------------|-------|----------------|-----------|----------|
D|------------------|------------|-------|----------------|-----------|----------|
A|------------------|5--5-5--5---|--7-7-7|----------------|5--5-5--5--|--7---7-7-|
E|-5--5-5--5--5-5--5|------------|-------|5--5-5--5--5-5-5|-----------|----------|

  LA                    RE         MI           LA          RE         MI
G|------------------|------------|-------|----------------|-----------|----------|
D|------------------|------------|-------|----------------|-----------|----------|
A|------------------|5--5-5--5---|--7-7-7|----------------|5--5-5--5--|--7---7-7-|
E|-5--5-5--5--5-5--5|------------|-------|5--5-5--5--5-5-5|-----------|----------|

  LA                    RE         MI           LA          RE         MI
G|------------------|------------|-------|----------------|-----------|----------|
D|------------------|------------|-------|----------------|-----------|----------|
A|------------------|5--5-5--5---|--7-7-7|----------------|5--5-5--5--|--7---7-7-|
E|-5--5-5--5--5-5--5|------------|-------|5--5-5--5--5-5-5|-----------|----------|




*GUITARRA 2 : Durante el solo
-----------

*[LAm - RE - MI]    {Hasta el final}.

                
el solo lo saque medio apurado espero que este bien...

NOTACION:

x: nota muerta o apagada.
b: bend o en castellano: estirar cuerda
~~: efecto de vibrato 
/: slice o deslizar. 
: dejar sonar

espero que te sirva... y que se entienda..

tenes que escucharla bien para poder tocarla lo mejor posible.                     fin
.......................................................................................

Fuente original ATAME [www.atame.org]
Colaborador original: GUILLERMO [elguille665@hotmail.com]

Fuente: tusacordes.com