a b c d e f g h i j k l m n o p q r s t u v w x y z 0-9

Etiqueta Negra

Patricio Rey Y Sus Redonditos De Ricota

			
Intro
G|-------------------------|x2
D|-------------------------|
A|-------------5-55-5-7-77-|
E|-5-55-5-55-5-------------|

Verso
G|--------------------------|x2
D|--------------------------|
A|------2-22-3-33-3-5-5-7-7-|
E|-5-55---------------------|

Puente
G|-------------------------|
D|-------------------------|
A|-------------5-55-5-7-77-|
E|-5-55-5-55-5-------------|

Verso
G|--------------------------|x2
D|--------------------------|
A|------2-22-3-33-3-5-5-7-7-|
E|-5-55---------------------|

Puente
G|-------------------------|
D|-------------------------|
A|-------------5-55-5-7-77-|
E|-5-55-5-55-5-------------|

Coro 1
G|-----|---------|
D|-----|---------|
A|-5-|-2-3-5-|
E|-----|---------|

Solo de Saxo
G|---------------------|x4
D|---------------------|
A|-0-3-2---0-3-2-------|
E|-------3-------0-3-0-|

 |--------------------------------|x2
 |--------------------------------|
 |-5-555-5------------------------|
 |---------1-11-5-333-333-333-333-|

Coro 2
G|------|-------|
D|------|-------|
A|-5-55-|-2-3-5-|
E|------|-------|

Puente **2VECES**
G|-------------------------|
D|-------------------------|
A|-------------5-55-5-7-77-|
E|-5-55-5-55-5-------------|

Verso
G|--------------------------|x2
D|--------------------------|
A|------2-22-3-33-3-5-5-7-7-|
E|-5-55---------------------|

Puente
G|-------------------------|
D|-------------------------|
A|-------------5-55-5-7-77-|
E|-5-55-5-55-5-------------|

Verso
G|--------------------------|x2
D|--------------------------|
A|------2-22-3-33-3-5-5-7-7-|
E|-5-55---------------------|

Puente
G|-------------------------|
D|-------------------------|
A|-------------5-55-5-7-77-|
E|-5-55-5-55-5-------------|

Coro 1
G|-----|---------|
D|-----|---------|
A|-5-|-2-3-5-|
E|-----|---------|

Solo de Saxo
G|---------------------|x4
D|---------------------|
A|-0-3-2---0-3-2-------|
E|-------3-------0-3-0-|

 |--------------------------------|x2
 |--------------------------------|
 |-5-555-5------------------------|
 |---------1-11-5-333-333-333-333-|

Coro 2
G|------|-------|
D|------|-------|
A|-5-55-|-2-3-5-|
E|------|-------|

Puente **HASTA EL FINAL**
G|-------------------------|
D|-------------------------|
A|-------------5-55-5-7-77-|
E|-5-55-5-55-5-------------|

Escuchá la canción para saber el ritmo

Fuente original ATAME [www.atame.org]
Colaborador original: Sebastián Vidondo [rojoamargodelsiglo@yahoo.com.ar]

Fuente: tusacordes.com