a b c d e f g h i j k l m n o p q r s t u v w x y z 0-9

Etiqueta Negra

Patricio Rey Y Sus Redonditos De Ricota

			
Intro
1------------------------------+-------------------
2------------------v-----------+-------------------
3------------------------------+--0-ho2---0-ho2----
4-2----v-2-----2-0-------------+--0-ho2---0-ho2----
5--0-0-----3-0-------3-3-2-2-0-+--0-------0--------
6------------------------------+-------------------

Riff
1-----------------------
2-----------------------
3-----------------------
4-----------------------
5-0-3-2---0-3-2---------
6-------3-------0-3-0---

 Am     G9/B         C            D     E       Am
   Venía rápido, muy rápido y se le soltó un patín.
        G9/B               C
A él que era rey de esta jungla
   D      E        Am
se le soltó un patín...

Su corazón no era un hotel
Aunque corría ese rumor.
Y hoy tiene una entre otras cruces
En este bosque siempre cruel.

    D                   C9-D
       Dejó un billete 
                                Riff  [D F Am]x2
que pide a gritos que lo gasten.
G    D                  C9-D
         Como una hoja 
                           Am  como intro
derivó en tu mismo turbio río.

Entre amuletos y talismanes su destino desafió.
Si su nariz crecía de tamaño prometía más.

No le robaba nunca nada a nadie,
A nadie en especial.
Ganó un orzuelo de tercer ojo
Y su nariz sangró.

No hubo caricias para su celo moro
Y ahora mira crecer las flores desde abajo.

Fuente original ATAME [www.atame.org]
Colaborador original: Ariel Georgalos [arfela@arnet.com.ar]

Fuente: tusacordes.com