a b c d e f g h i j k l m n o p q r s t u v w x y z 0-9

Estrella Del Sur

Patricio Rey Y Sus Redonditos De Ricota

			
bueno es una tab facil de hacer espero ke les sirva

G--------------------
D--------------------
A--------------------   intro
E-0-0-0-0-3-3-0-0-0-0

G------------------------------
D------------------------------
A------------------------------
E-0-0-0-0-5-5-5-5-0-0-0-0-5-5-0
su cuchillo de herrero afilo...

G--------------       G------------
D--------------       D------------
A--------------       A-5-5-5-5-5-5
E-0-0-0-0-0-0-0       E------------
soy jocker comodin...

despues hace:
G------------
D------------
A------------
E-0-5-0-5-0-5

solo de trompeta:
G----------------------------------
D----------------------------------
A----------------------------------
E-5-0-5-6-5-0-5-6-5-0-5-6-5-0-5-3-0

solo guitarra:
G--------
D--------
A--------
E-3-0-3-0

solo trompeta:
G--------------
D--------------
A--------------
E-5-0-5-6-5-0-5

pida lo que usted quiera señor... sin bajo

un dios nuevo... y bajo nuestro pulgar...
G--------------------------------
D--------------------------------
A---7-9-----79-------------------
E-8-----8-8----8-11-9-7-5-3-0-0-0

volvere a sumergirme señor...
G------------------
D------------------
A------------------
E-0-0-5-5-0-0-5-5-0

ya me harto la funcion
G--------               G-----------------------------
D--------               D-----------------------------
A--------               A-----------------------------
E-0-00-00               E-10-10-10------------555--000
                        en la estrella...

solo de guitarra:
G------------------------------------------------------
D------------------------------------------------------
A------------------------------------------------------
E-0-0-5-5-7-7-0-0-575-0-0-7-7-0-0-5-5-0-0-7-7-0-0-575-0
y asi sigue hasta ke se disminuye gradualmente el 
volumen

bueno eso es to to toooooodo amigos espero ke les sirva
y ante kualkier duda komentario o correccion eskribanme
a tincho@bassplayer.cc

Fuente original ATAME [www.atame.org]
Colaborador original: Martín Rey [tincho@bassplayer.cc]

Fuente: tusacordes.com