a b c d e f g h i j k l m n o p q r s t u v w x y z 0-9

Espejismo

Patricio Rey Y Sus Redonditos De Ricota

			
intro .
 
guitarra:  REm         REm              SOLm                  REm                REm
con delay
e|-----5-5-5-5-/-0------5-5-5-5-/-0-|------------3---3----|-1-5-5-5-5-/-0------5-5-5-5-/-0--|
B|----------------------------------|-----3-------3---3---|-3-------------------------------|
G|----------------------------------|---3----------3---3--|-2-------------------------------|
D|-0--------------0-------------|-5----5-----------5|-0--------------0--------------|
A|----------------------------------|---------------------|-----------------------------------|
E|----------------------------------|---------------------|-----------------------------------|

    Solm                          LAm                     Solm                 REm              
e|-------------3----3-------|-----0--------5---5------|----------3---3------|-----1---------|
B|--------------3----3------|----1------5---5---5-----|------3----3---3-----|----3----------|
G|-----3---------3----3-/---|---2------5-5---5---5----|-----3-3----3---3----|---2-----------|
D|---5---5----------------|--2-------------------7/-|-5--------------5/-|--0------------|
A|-5------------------------|-0-----------------------|---------------------|-----------------|
E|--------------------------|-------------------------|---------------------|-----------------|

BAJO:
             RE                            SOL                  RE               
G|----------------------------------|---------------------|-----------------------------------|
D|----------------------------------|---------------------|-----------------------------------|
A|-5-----------0--5-------------|--------------------0|-5-----------0--5--------------|
E|----------------------------------|0-3---------3----|-----------------------------------|

      Sol                          LA                      Sol                 RE      
G|--------------------------|-------------------------|---------------------|-----------------|
D|--------------------------|-------------------------|---------------------|-----------------|
A|--------------------------|-------------------------|---------------------|--5------------|
E|0--3-------0-3--------|-0-5----------5------|-0--3-------0-3--|-----------------|



VERSO 1:

             RE                            SOL                  RE               
G|----------------------------------|---------------------|-----------------------------------|
D|----------------------------------|---------------------|-----------------------------------|
A|-5-----------0--5-------------|--------------------0|-5-----------0--5--------------|
E|----------------------------------|0-3---------3----|-----------------------------------|

      Sol                          LA                      Sol                
G|--------------------------|-------------------------|---------------------|
D|--------------------------|-------------------------|---------------------|
A|--------------------------|-------------------------|---------------------|
E|0--3-------0-3--------|-0-5----------5------|-0--3-------0-3--|


GUITARRA: con delay va haciendo algunos arreglos sobre las notas

REm                         SOLm
La tierra gira hoy, menos veloz,
REm                            SOLm
en ciertas cosas, el diablo siempre es neutral
LAm
pasará, ya pasará
SOLm
este espejismo pasará...


ESTRIBILLO:
guitarra:
    rem          solm            la   re   sol  re   sol  re
e|-------5-----|-3-3-3-3-3-3--|-5--------------------------|--|
B|--------6----|-3-3-3-3-3-3--|-5--------6------6------|--|
G|----7----7---|-3-3-3-3-3-3--|-5---7--5-7--5------|x2|
D|---7------7--|-5-5-5-5-5-5--|-7---7--3-7--3--7777|--|
A|--5----------|-5-5-5-5-5-5--|-7---5------5-------5555|--|
E|-------------|-3-3-3-3-3-3--|-5--------------------------|--|

BAJO:

G|-------------|--------------|------------------------------|--|
D|-------------|--------------|-----------3--------3-----|x2|
A|-555555555-0-|--------------|-------5------5-------5-|--|
E|-------------|-3-3-3-3-3-3--|-5--------------------------|--|


VERSO 2: igual al 1

Cerrás los ojos y ves la boutique del rock
y sus jugadas que siguen saliendo bien.
Lo mejor de nuestra piel
es que no nos deja huir...

SOLO DE VIOLIN::

GUITARRA [REm-SOLm-REm-SOLm-LAm-Solm]

BAJO:
            RE                            SOL                  RE               
G|----------------------------------|---------------------|-----------------------------------|
D|----------------------------------|---------------------|-----------------------------------|
A|-5-----------0--5-------------|--------------------0|-5-----------0--5--------------|
E|----------------------------------|0-3---------3----|-----------------------------------|

      Sol                          LA                      Sol                
G|--------------------------|-------------------------|---------------------|
D|--------------------------|-------------------------|---------------------|
A|--------------------------|-------------------------|---------------------|
E|0--3-------0-3--------|-0-5----------5------|-0--3-------0-3--|


VIOLIN arreglo para guitarra

e|--------------------|---------------3--6h8-5-|-12h13-12------------|-------|-11/-12------
B|-10-10------------|---------3-5-6------------|---------15----------|-------|-------13----
G|---------10----12-|-0-2-3--5-----------------|-----------14-12-14-/|15-12|--------14-
D|------------12------|--------------------------|---------------------|-------|-------------
A|--------------------|--------------------------|---------------------|-------|-------------
E|--------------------|--------------------------|---------------------|-------|-------------

e|12----------|------------------12-13-15--17-18-18-17--|
B|--13--------|------------13-15--------------------------|
G|----14-12-|-12-14-15--------------------------------|
D|------------|-------------------------------------------|
A|------------|-------------------------------------------|
E|------------|-------------------------------------------|


VERSO 3 iGUAL A TODOS

Contra las cuerdas vas a desafinar
canciones tristes, dueñas del corazón.
Borra el rastro de tu dolor y ya no te arrepentís.



ESTRIBILLO hasta el final

guitarra:
    rem          solm            la   re   sol  re   sol  re
e|-------5-----|-3-3-3-3-3-3--|-5--------------------------|--|
B|--------6----|-3-3-3-3-3-3--|-5--------6------6------|--|
G|----7----7---|-3-3-3-3-3-3--|-5---7--5-7--5------|x8| FADE OUT
D|---7------7--|-5-5-5-5-5-5--|-7---7--3-7--3--7777|--|
A|--5----------|-5-5-5-5-5-5--|-7---5------5-------5555|--|
E|-------------|-3-3-3-3-3-3--|-5--------------------------|--|

BAJO:

G|-------------|--------------|------------------------------|--|
D|-------------|--------------|-----------3--------3-----|x8| FADE OUT
A|-555555555-0-|--------------|-------5------5-------5-|--|
E|-------------|-3-3-3-3-3-3--|-5--------------------------|--|


..en la vuelta N° 2 de estribillo final empieza un solo de saxo y violin que dura hasta el final...


FADE OUT: ir disminuyendo el volumen...

FIN.

Fuente original ATAME [www.atame.org]
Colaborador original: GUILLE [elguille665@hotmail.com]

Fuente: tusacordes.com