a b c d e f g h i j k l m n o p q r s t u v w x y z 0-9

Esa Estrella Era Mi Lujo

Patricio Rey Y Sus Redonditos De Ricota

			
Esa Estrella Era Mi Lujo - Patricio Rey y Sus Redonditos de Ricota

Intro: x3

  E|----0--|-1--1--|-5-3-5-3--3----------------|
  B|----1--|-1--1--|------------6-5------------|
  G|----2--|-2--2--|---------------------------|
  D|-2--2--|-3--3--|---------------------------|
  A|-0-----|-3--3--|---------------------0-3-0-| 
  E|-------|-1--1--|-----------------0-3-------|                   

Punteo:

  E|--0--|-1-1--|-5-3-5-3--3--------------------------------------------------------|
  B|--1--|-1-1--|------------6-5----1-0---------------------------------8-10--8-----|
  G|--2--|-2-2--|-----------------------2-0----------------------7-9-10----------9--|
  D|--2--|-3-3--|---------------------------3----2--------7-9-10--------------------|
  A|-----|-3-3--|-------------------------------------------------------------------|
  E|-----|-1-1--|-------------------------------------5-----------------------------|


F E
Am             F
 ¿era todo? pregunté.
E           Am[riff 1]
 soy un iluso.
Am             F
 no nos dimos nada más,
E          Am[riff 2]
 sólo un buen gesto.

Intro x2

Am               F  
 Mordí el anzuelo una vez más. 
E           Am[riff 1]
 siempre un iluso.
Am                F
 nuestra estrella se agotó
E           Am[riff 2] 
 y era mi lujo.

 Intro x1   Solo

E|-0--|-1-1-|-5-3-5-3--3-----------------------------------------------------------------------|
B|-1--|-1-1-|------------6-5---1-0---------------------------------8-10--10-8---8-10-----------|
G|-2--|-2-2-|----------------------2-0----------------------7-9-10------------9-------9-7----9-|
D|-2--|-3-3-|--------------------------3----2--------7-9-10------------------------------10----|
A|----|-3-3-|----------------------------------------------------------------------------------|
E|----|-1-1-|------------------------------------5---------------------------------------------|


E|-----------------------------------------------------------|
B|-----------------------------------------------------------|
G|-----------------------------9-7----9-7----9-7-------------|
D|------7-10--7-------7-10---------10-----10-----10-9-10-9---|
A|-7-10----------7-10-------8------------------------------7-|
E|-----------------------------------------------------------|


E|----------------------7-8-10-8--7--8--7------7-8-7-----------|
B|---------------8-10----------------------10--------8--5_8-10-| [ _ = slide ]
G|-----------7-9-----------------------------------------------|    
D|------7-10---------------------------------------------------|
A|-7-10--------------------------------------------------------|
E|-------------------------------------------------------------|


Am             F  
 Ella fue por esa vez
E            Am 
 mi héroe vivo, bah
Am            F  
 fue mi único héroe
E        Am[riff 1]
 en este lío.
Am            F
 la más linda del amor
E             Am
 que un tonto ha visto soñar
Am               F       E                Am
 metió, metió mi rocanrol bajo este pulso.


A|----0-3-0--|
E|-0-3-------| [riff 1]

D|-------0--|
A|-------0--| [riff 2]
E|-3--2--0--|Fuente: Tus acordes