a b c d e f g h i j k l m n o p q r s t u v w x y z 0-9

Esa Estrella Era Mi Lujo

Patricio Rey Y Sus Redonditos De Ricota

			
Intro:
     LAm   FA  SOL         MI
|-----0----11--5-3-5-3-3------|----------------|
|-----1----11------------6-5--|----------------|
|-----2----22-----------------|----------------|
|---2-2----33-----------------|----------------| X3
|---0-0--3-33-----------------|------0-3-------|
|--------1-11-----------------|--0-3-----------|

     LAm   FA  SOL         MI
|-----0----11--5-3-5-3-3------|
|-----1----11------------6-5--|
|-----2----22-----------------|
|---2-2----33-----------------|
|---0-0--3-33-----------------|
|--------1-11-----------------|
          FA   MI   Lam                  FA     MI    Lam  FA MI
|----------------------|--------------------------------|
|-1-0------------------|---------------8-10-----8-------|
|-----2-0--------------|--------7-9-10------------------|
|---------3----2-------|-7-8-10-----------------------7-|
|-------------------0--|--------------------------------|
|----------------------|--------------------------------|

LAm          Fa     Mi
¿Era todo? Pregunté.
       LAm  Punteo 1
Soy un iluso.
LAm          Fa      Mi
No nos dimos nada más,
              LAm   Punteo 2
sólo un buen gesto.

     LAm   FA  SOL         MI
|-----0----11--5-3-5-3-3------|----------------|
|-----1----11------------6-5--|----------------|
|-----2----22-----------------|----------------|
|-----2----33-----------------|----------------|
|-----0--3-33-----------------|------0-3-------|
|--------1-11-----------------|--0-3-----------|

     LAm   FA  SOL         MI
|-----0----11--5-3-5-3-3------|----------------|
|-----1----11------------6-5--|----------------|
|-----2----22-----------------|----------------|
|---2-2----33-----------------|----------------|
|---0-0--3-33-----------------|------0-3-------|
|--------1-11-----------------|--0-3-----------|

El tema sigue igual
Mordí el anzuelo una vez más.
Siempre un iluso.
Nuestra estrella se agotó
Y era mi lujo.

     LAm   FA  SOL         MI
|-----0----11--5-3-5-3-3------|----------------|
|-----1----11------------6-5--|----------------|
|-----2----22-----------------|----------------|
|-----2----33-----------------|----------------|
|-----0--3-33-----------------|------0-3-------|
|--------1-11-----------------|--0-3-----------|

     LAm   FA  SOL         MI
|-----0----11--5-3-5-3-3------|
|-----1----11------------6-5--|
|-----2----22-----------------|
|---2-2----33-----------------|
|---0-0--3-33-----------------|
|--------1-11-----------------|

Solo:
         FA   MI   LAm                   FA          MI
|----------------------|------------------------------------------
|-1-0------------------|----------------8-10---10--8---8-10-------
|-----2-0--------------|---------7-9-10--------------9------------
|---------3----2-------|--7-8-10----------------------------------
|--------------------0-|------------------------------------------
|----------------------|------------------------------------------

          Lam                           FA           MI
|-------------------------------------------------------------------
|-------------------------------------------------------------------
|--9-7----9-----------------------------------7^-7-5-7^-7-5-7^-7-5-4
|------10-----------7-10--7-------7-10------------------------------
|--------------7-10----------7-10-------8---------------------------
|-------------------------------------------------------------------

    Lam                   FA      MI       Lam   FA   MI
|-----------------------------7-8-10-8-7-8-7-----7-8-7---------|
|-----------------------8-10-----------------10--------9--9-10-|
|-5-4---------------7-9----------------------------------------|
|--------------7-10--------------------------------------------|
|-----7---7-10-------------------------------------------------|
|--------------------------------------------------------------|

LAm          Fa      Mi
Ella fue por esa vez
          LAm    Punteo 1
mi héroe vivo, bah,
LAm          Fa     Mi
fue mi único héroe
        LAm  Punteo 1
en este lío.
LAm          Fa        Mi
La más linda del amor,
                LAm      Punteo 1
que un tonto ha visto soñar.
LAm          Fa         MiArpegio hacia abajo
Metió, metió mi rocanrol
silencio
bajo este pulso.
 - termina como Lam pero con cejilla en el 5º traste - *
----------------------------------------
|----------------|                   |----------------|
|----------------|                   |----------------|
|----------------|                   |----------------|
|----------------| Riff 1          |----------------| Riff 2
|------0-3-0-----|                   |---3---2---0----|
|--0-3-----------|                   |----------------|

* (Ultimo acorde - Una especie de Rem)
e:--5--
B:--6--
G:--7--
D:--7--
A:--5--
E:--5--

Fuente: tusacordes.com